Oops, an error
Loading. Please wait.

Poker Face tab

version 1
version 1

Whole song

Interactive

49,963 views 9 this week
7 commentsread comments
1 2 3 4 5
x 13
add to favorites
×
Save as Personal and add changes to this tab that will be seen only by you. Learn more ›
×
You can save this tab as Personal to edit and correct it or add notes. All changes will be seen only by you. Learn more »
launch autoscroll
font size
0
reset
how to read this tab
guitar tuner
edit
Autoscroll
slow
fast
+/-
esc
set tempo
stop
Song:      Poker Face (Live Lounge Cover)
Artist:    You Me At Six
Album:     -
Tabbed by: Joe Sutton

I sat down and tabbed this as soon as I heard it on Jo Whiley's show. It's a great 
and no-one else is yet to have tabbed it. I'm pretty sure it's 100% accurate. Please rate and 
Thanks

Intro
e|------------|
B|------------|
G|------------|  x3
D|--4-4-4-6\--|
A|--4-4-4-6\--|
D|--4-4-4-6\--|


Verse
e|-----------------------------------|
B|-----------------------------------|
G|-----------------------------------|  x6
D|--6-6-------------6-6--------------|
A|----------6-6-------------9-9------|
D|------6-6-----6-6-----6-6-----6-6--|
PM      - -     - -     - -     - -


e|------------------------------------------------------|
B|------------------------------------------------------|
G|-------------------------------8-7-------8-7-8-7------|  x2
D|------------------------------------9-6------------6--|
A|-----6p5-------6p5-6p5---------------------------9----|
D|--6~------9-6----------4h6----------------------------|


Chorus
e|-------------------------------------------------------------------|
B|-------------------------------------------------------------------|
G|----------------------------------4-4-4-4-4-4-4-4------------------|  x2
D|--6-6-6-6-6-6-6-6-2-2-2-2-2-2-2-2-4-4-4-4-4-4-4-4-8-8-8-8-8-8-8-8--|
A|--6-6-6-6-6-6-6-6-2-2-2-2-2-2-2-2-2-2-2-2-2-2-2-2-4-4-4-4-4-4-4-4--|
D|--6-6-6-6-6-6-6-6-2-2-2-2-2-2-2-2-----------------4-4-4-4-4-4-4-4--|

e|------------|
B|------------|
G|------------|
D|--4-4-4-6\--|
A|--4-4-4-6\--|
D|--4-4-4-6\--|


Verse
e|-----------------------------------|
B|-----------------------------------|
G|-----------------------------------|  x6
D|--6-6-------------6-6--------------|
A|----------6-6-------------9-9------|
D|------6-6-----6-6-----6-6-----6-6--|
PM      - -     - -     - -     - -


e|------------------------------------------------------|
B|------------------------------------------------------|
G|-------------------------------8p7-------8p7-8p7------|
D|------------------------------------9-6------------6--|
A|-----6p5-------6p5-6p5---------------------------9----|
D|--6~------9-6----------4h6----------------------------|


Chorus
e|-------------------------------------------------------------------|
B|-------------------------------------------------------------------|
G|----------------------------------4-4-4-4-4-4-4-4------------------|  x6
D|--6-6-6-6-6-6-6-6-2-2-2-2-2-2-2-2-4-4-4-4-4-4-4-4-8-8-8-8-8-8-8-8--|
A|--6-6-6-6-6-6-6-6-2-2-2-2-2-2-2-2-2-2-2-2-2-2-2-2-4-4-4-4-4-4-4-4--|
D|--6-6-6-6-6-6-6-6-2-2-2-2-2-2-2-2-----------------4-4-4-4-4-4-4-4--|


Bridge
e|-------------------------------------|
B|-------------------------------------|
G|--------8-7-7-----------8-7-8-7------|  x8
D|--6-6-6-------9-9-6-6-6-----------6--|
A|--------------------------------9----|
D|-------------------------------------|
PM  - - - - - - - - - - - - - - - - -


Chorus
e|-------------------------------------------------------------------|
B|-------------------------------------------------------------------|
G|----------------------------------4-4-4-4-4-4-4-4------------------|
D|----------------------------------4-4-4-4-4-4-4-4-8-8-8-8-8-8-8-8--|
A|----------------------------------2-2-2-2-2-2-2-2-4-4-4-4-4-4-4-4--|
D|--------------------------------------------------4-4-4-4-4-4-4-4--|

e|-------------------------------------------------------------------|
B|-------------------------------------------------------------------|
G|----------------------------------4-4-4-4-4-4-4-4------------------|  x4
D|--6-6-6-6-6-6-6-6-2-2-2-2-2-2-2-2-4-4-4-4-4-4-4-4-8-8-8-8-8-8-8-8--|
A|--6-6-6-6-6-6-6-6-2-2-2-2-2-2-2-2-2-2-2-2-2-2-2-2-4-4-4-4-4-4-4-4--|
D|--6-6-6-6-6-6-6-6-2-2-2-2-2-2-2-2-----------------4-4-4-4-4-4-4-4--|


Outro
e|--------------------------------|
B|--------------------------------|
G|--------------------------------|
D|---------------------------6-\--|
A|-----6-5-------6-5-6-5-----6-\--|
D|--6-------9-6----------4---6-\--|

            
            
Suggest correction
Creating personal tab
Creating personal tab
You can edit any tab online and save it as your Personal.

You can edit, replace or remove any tab part or add personal notes – all changes will be seen only by you.

Personal tabs can be accessed anytime from any device, even offline.
Learn more »
comments
print report bad tab
7 comments total. Showing first comments.
0 reply
Kapow1992 20 Jun 15, 2009 11:51 AM

i think this happens during the verse

6-6-6-6-6-6-6-6 4-4-4-4-4-4-4-4
6-6-6-6-6-6-6-6 4-4-4-4-4-4-4-4 x4
6-6-6-6-6-6-6-6 4-4-4-4-4-4-4-4
. . . . . . . . . . . . . . . .

0 reply
beatreebor 20 Jun 17, 2009 09:31 AM

yea the second guitar is playing what kapow posted, amazing tab tho!.

0 reply
RockurSocks132 21 Aug 23, 2009 06:09 AM

i thought its the bass playinghat the tab says? great tab tho 5*s

guest
You may want to rate the tab now too:
select rating
Wanna post a correction for this tab? Suggest correction