Oops, an error
Loading. Please wait.

Save It For The Bedroom bass

version 1
version 1

Whole song

Interactive

20,392 views 9 this week
6 commentsread comments
1 2 3 4 5
x 8
add to favorites
×
Save as Personal and add changes to this tab that will be seen only by you. Learn more ›
×
You can save this tab as Personal to edit and correct it or add notes. All changes will be seen only by you. Learn more »
launch autoscroll
font size
0
reset
guitar tuner
edit
Autoscroll
slow
fast
+/-
esc
set tempo
stop
Author
Difficulty
you me at six
save it for the bedroom


this is my first tab so please give me feedback

rowan-skate@hotmail.co.uk

intro:no bass

verse 1
G|--------------------------------------------------|
D|--------------------------------------------------|
A|-4(x32)-------------------------4-4-444-----------|x2
E|--------2(x32)--4(x32)--2(x32)--------------------|

chorus
G|--------------------------------------|
D|--------------------------------------|
A|-4(x32)-------------------------------|
E|--------2(x32)--6(x32)-2(x32)---------|

verse 2
G|-----------------------------------------------|
D|-----------------------------------------------|
A|-444444646-------6462--------------------------|x2
E|----------4--4444-----2(x16)-------------------|

chorus
G|--------------------------------------|
D|--------------------------------------|
A|-4(x32)-------------------------------|
E|--------2(x32)--6(x32)-2(x32)---------|

bridge pt 1
G|--------------------------------------|
D|--------------------------------------|
A|-4~~~~-4~~~~--------------------------|x4
E|---------------4~~~~--4~~~~~----------|

bridge pt 2: just drums

chorus
G|--------------------------------------|
D|--------------------------------------|
A|-\4(x32)------------------------------|
E|--------2(x32)--6(x32)-2(x32)---------|

slow picking
G|--------------------------------------|
D|--------------------------------------|
A|-4(x16)-------------------------------|
E|--------2(x16)--6(x16)-2(x16)---------|


G|--------------------------------------|
D|--------------------------------------|
A|-4-4-4--------------------------------|
E|--------------------------------------|

end

enjoy

            
            
Suggest correction
Creating personal tab
Creating personal tab
You can edit any tab online and save it as your Personal.

You can edit, replace or remove any tab part or add personal notes – all changes will be seen only by you.

Personal tabs can be accessed anytime from any device, even offline.
Learn more »
comments
print report bad tab
6 comments total. Showing first comments.
0 reply
TommyGun91 903 May 22, 2008 10:15 AM

For the chorus play this instead, sounds a little better =)

G|--------------------------------------|
D|--------------------------------------|
A|-4(x32)---------4(x32)------------------|
E|--------2(x32)---------2(x16)-----------|

0 reply
chris bingham 31 Aug 21, 2008 11:13 AM

y intermediate
good tab though!! :)

0 reply
purplemonkey 10 Sep 10, 2008 09:20 AM

For the bridge, i play this, it sounds better

bridge pt 1
G|--------------------------------------|
D|--------------------------------------|
A|-4~~~~-4~~~~--------------------------|x4
E|---------------2~~~~--2~~~~~----------|

guest
You may want to rate the tab now too:
select rating
Wanna post a correction for this tab? Suggest correction