Oops, an error
Loading. Please wait.

Stay With Me bass

version 1
version 1

Whole song

Interactive

13,065 views 12 this week
1 commentread comment
1 2 3 4 5
x 10
add to favorites
×
Save as Personal and add changes to this tab that will be seen only by you. Learn more ›
×
You can save this tab as Personal to edit and correct it or add notes. All changes will be seen only by you. Learn more »
launch autoscroll
font size
0
reset
guitar tuner
edit
Autoscroll
slow
fast
+/-
esc
set tempo
stop
I know this probably isn't 100% correct but this is my version of how I play it and I 
it sounds just fine, great song by a great band :)

Drop D Tuning (DADG)

~ Hold Note


Intro

G|-------------------------------------|
D|-------------------------------------|
A|-5-55-555-3-33-333-1-11-111-1-11-111-|
D|-------------------------------------|

G|----------------------------------------|
D|----------------------------------------|
A|-5-55-555-3-33-333-1-11-111-1-11-111-5~-|
D|----------------------------------------|


Guitar Only


1st Verse

'You've Got A Lot To Say...'

G|------7----------5----------3---------------|
D|--------------------------------------------|
A|-5-55---7-5-3-33---5-3-1-11---3-1-1-11-333--| X3
D|--------------------------------------------|

'The Bottom Line Is...'

G|------7----------5----------3-----------------|
D|----------------------------------------------|
A|-5-55---7-5-3-33---5-3-1-11---3-1-1-11-333----|
D|-------------------------------------------0~-|


1st Chorus

'Stayyy...'

G|-------------------------------------|
D|-------------------------------------|
A|-5-55-555-3-33-333-1-11-111-1-11-111-|
D|-------------------------------------|

G|-------------------------------------|
D|-------------------------------------|
A|-5-55-555-8-88-888-1-11-111-1-11-111-|
D|-------------------------------------|


Post Chorus/ 2nd Verse

'Uh Uh Whoah Oh...'

G|------7----------5----------3---------------|
D|--------------------------------------------|
A|-5-55---7-5-3-33---5-3-1-11---3-1-1-11-333--| X3
D|--------------------------------------------|

'Some Things...'

G|------7----------5----------3-------------------------|
D|------------------------------------------------------|
A|-5-55---7-5-3-33---5-3-1-11---3-1-1-11-333------------|
D|-------------------------------------------0-00000000-|


2nd Chorus

'Stayyy...'

G|-------------------------------------|
D|-------------------------------------|
A|-5-55-555-3-33-333-1-11-111-1-11-111-|
D|-------------------------------------|

G|-------------------------------------|
D|-------------------------------------|
A|-5-55-555-8-88-888-1-11-111-1-11-111-|
D|-------------------------------------|

'And I Know...'

G|-------------------------------------|
D|-------------------------------------|
A|-5-55-555-3-33-333-1-11-111-1-11-111-|
D|-------------------------------------|

G|-------------------------------------|
D|-------------------------------------|
A|-5-55-555-8-88-888-1-11-111-1-11-111-|
D|-------------------------------------|


Bridge

'These Things Take...'

G|------------------------------------|
D|------------------------------------|
A|------------------------------------| X3
D|-33333333-55555555-0000000000000000-|

'And So...'

G|------------------------------------------------------------------------|
D|------------------------------------------------------------------------|
A|------------------------------------------------------------------------|
D|-33333333-55555555-0000000000000000-1212121212121212~- < (12's not 1-2)-|


Guitar Fill


Final Chorus

'Stayyy...'

G|-------------------------------------|
D|-------------------------------------|
A|-5-55-555-3-33-333-1-11-111-1-11-111-|
D|-------------------------------------|

G|-------------------------------------|
D|-------------------------------------|
A|-5-55-555-8-88-888-1-11-111-1-11-111-|
D|-------------------------------------|

'And I Know...'

G|-------------------------------------|
D|-------------------------------------|
A|-5-55-555-3-33-333-1-11-111-1-11-111-|
D|-------------------------------------|

G|----------------------------------------|
D|----------------------------------------|
A|-5-55-555-8-88-888-1-11-111-1-11-111-5~-|
D|----------------------------------------|

And that's it, easy once you get the hang of it :) comment and rate constructively!

            
            
Suggest correction
Creating personal tab
Creating personal tab
You can edit any tab online and save it as your Personal.

You can edit, replace or remove any tab part or add personal notes – all changes will be seen only by you.

Personal tabs can be accessed anytime from any device, even offline.
Learn more »
comments
print report bad tab
1 comment total.
0 reply
jackman970831 12 Nov 13, 2015 12:19 PM

it just didn't sound right. When playing it, the b flat sounded weird with the rest of the song. just didn't fit in

guest
You may want to rate the tab now too:
select rating
Wanna post a correction for this tab? Suggest correction