Oops, an error
Loading. Please wait.

The Swarm bass

2,975 views 1 this week
no commentswrite comment
1 2 3 4 5
x 7
add to favorites
×
Save as Personal and add changes to this tab that will be seen only by you. Learn more ›
×
You can save this tab as Personal to edit and correct it or add notes. All changes will be seen only by you. Learn more »
launch autoscroll
font size
0
reset
guitar tuner
edit
Autoscroll
slow
fast
+/-
esc
set tempo
stop
Artist: You Me At Six
Song: The Swarm
Album: Single
Tuning: Drop D

Tabbed by Ted Gibbs
E-Mail: brokenmemories12@gmail.com

(P.S I will be doing a cover of this song soon and will post a link in the tab)


No bass until 00:31

Verse 1: (00:31-00:42)

G|-----------------------------------|
D|-----------------------------------|
A|--------------------1-1-1-1--------|
D|0-0-0-0-0-0-0-0-0-0---------5-5-5-5|


G|-----------------------------------|
D|-----------------------------------|
A|--------------------1-1-1-1--------|
D|--0-0-0-0-0-0-0-0-0---------5-5-5-5|


Chorus: (00:42-01:06)

G|---------------------------------------------------------------|
D|---------------------------------------------------------------|
A|----------------1-1-1-1-1-1-1-1--------------------------------|
D|0-0-0-0-0-0-0-0-----------------3-3-3-3-3-3-3-3-3-3-3-3-0-3-5-3|


G|--------------------------------------------------------------------|
D|--------------------------------------------------------------------|
A|----------------1-1-1-1-1-1-1-1-------------------------------------|
D|0-0-0-0-0-0-0-0-----------------3-3-3-3-3-3-3-3-3-3-3-3-0-3-5-3-5-0~|


Post-Chorus: (01:06-01:17)

G|---------------------------------------------------------------|
D|---------------------------------------------------------------|
A|5555555555555555-11111111--------------------------------------|
D|--------------------------55555555-----------------------------| x2


Verse 2: (01:17-01:40)

G|---------------------------------------------------------------|
D|---------------------------------------------------------------|
A|---5-3-5-5-3-5-3535-1-1-1-1------------------------------------|
D|0~--------------------------5-5-8530~--------------------------| x3


G|---------------------------------------------------------------|
D|---------------------------------------------------------------|
A|---5-3-5-5-3-5-3535-1-1-1-1------------------------------------|
D|0~--------------------------55555------------------------------|


Chorus: (01:40-02:03)

G|---------------------------------------------------------------|
D|---------------------------------------------------------------|
A|----------------1-1-1-1-1-1-1-1--------------------------------|
D|0-0-0-0-0-0-0-0-----------------3-3-3-3-3-3-3-3-3-3-3-3-0-3-5-3|


G|--------------------------------------------------------------------|
D|--------------------------------------------------------------------|
A|----------------1-1-1-1-1-1-1-1-------------------------------------|
D|0-0-0-0-0-0-0-0-----------------3-3-3-3-3-3-3-3-3-3-3-3-0-3-5-3-5-0~|



Bridge: (02:03-02:48)

G|----------------------------------------------------------------|
D|----------------------------------------------------------------|
A|----------------------------------------------------------------|
D|3335550000000000333555000000000033355500000000003335550000000000|


G|---------------------------------------------|
D|---------------------------------------------|
A|---------------------------------------------|
D|333555000000000033355500000000003335550000000|


G|----------------------------------------------------------------|
D|----------------------------------------------------------------|
A|----------------------------------------------------------------|
D|3335550000000000333555000000000033355500000000003335550000000000|


G|---------------------------------------------------|
D|---------------------------------------------------|
A|---------------------------------------------------|
D|33355500000000003335550000000000333555000-0-0-0-0-0|


Chorus: (02:48-03:10)

G|---------------------------------------------------------------|
D|---------------------------------------------------------------|
A|----------------1-1-1-1-1-1-1-1--------------------------------|
D|0-0-0-0-0-0-0-0-----------------3-3-3-3-3-3-3-3-3-3-3-3-0-3-5-3|

G|---------------------------------------------------------|
D|---------------------------------------------------------|
A|----------------1-1-1-1-1-1-1-1--------------------------|
D|0-0-0-0-0-0-0-0-----------------3-3-3-3-3-3-3-3-30-30-3-5|


Final Chorus: (03:10-3:33)

G|---------------------------------------------------------------|
D|---------------------------------------------------------------|
A|----------------11111111111111110------------------------------|
D|0000000000000000-----------------33333333333333333333333333333-|

G|------------------------------------------------------------------|
D|------------------------------------------------------------------|
A|----------------11111111111111110---------------------------------|
D|0000000000000000-----------------33333333333333335555555533333333-|


Outro: (03:33-03:39)

G|----------------------------|
D|----------------------------|
A|----------------------------|
D|3-3-5-5-0~-3-3-5-5-0~~~~~~~~|

That's it! Rate fairly and make sure you tell me if I made a mistake.




| /  slide up
| \  slide down
| h  hammer-on
| p  pull-off
| ~  vibrato
| +  harmonic
| x  Mute note

            
            
Suggest correction
Creating personal tab
Creating personal tab
You can edit any tab online and save it as your Personal.

You can edit, replace or remove any tab part or add personal notes – all changes will be seen only by you.

Personal tabs can be accessed anytime from any device, even offline.
Learn more »
comments
print report bad tab
guest
You may want to rate the tab now too:
select rating
Wanna post a correction for this tab? Suggest correction