Oops, an error
Loading. Please wait.

Trophy Eyes tab

version 2
version 2

Whole song

Interactive

1,510 views 3 this week
no commentswrite comment
1 2 3 4 5
x 4
add to favorites
×
Save as Personal and add changes to this tab that will be seen only by you. Learn more ›
×
You can save this tab as Personal to edit and correct it or add notes. All changes will be seen only by you. Learn more »
launch autoscroll
font size
0
reset
how to read this tab
guitar tuner
backing track
0:00
0:00
edit
Autoscroll
slow
fast
+/-
esc
set tempo
stop
Artist: You Me At Six
Song: Trophy Eyes
Album: Hold Me Down
Tabbed by: gustavoaraujo999@hotmail.com

== GUITAR ONE (LEAD) ==

0:00
e|------------------------------------------------|
B|----------14-----------------------14-----------|
G|----------------11------------------------11----|
D|-13-11-13----13----13----11-13-11-13---13----13-|
A|------------------------------------------------|
D|------------------------------------------------|

e|-------------------------------------------|
B|----------14-------------------------------|
G|----------------11-------------------------|
D|-13-11-13----13----13--11-13-11-13-11-13\--|
A|-------------------------------------------|
D|-------------------------------------------|

0:05
e|-----------------------------------------------------------------------------|
B|----------14-----------------------14--------------------------14------------|
G|----------------11------------------------11--------------------------11-----|
D|-13-11-13----13----13----11-13-11-13---13----13----11-13-11-13----13-----13--|
A|-----------------------------------------------------------------------------|
D|-----------------------------------------------------------------------------|

e|-----------------------------------------------------------------------------|
B|----------14-----------------------14----------------------------------------|
G|----------------11------------------------11----11--1313131313-111111-1010-8-|
D|-13-11-13----13----13----11-13-11-13---13----13------------------------------|
A|-----------------------------------------------------------------------------|
D|-----------------------------------------------------------------------------|

0:18
e|----------------------------------|
B|----------------------------------|
G|------------6/8-8-----------------|
D|-6/8-8--------------------4---6---|
A|----------------------------7-----|
D|----------------------------------|

0:27
e|--------------------------------------------------|
B|-7-7--7-7-----7-7--7-7-----7-7--7-7-----7-7--7-7--|
G|-8-8--8-8-----8-8--8-8-----8-8--8-8-----8-8--8-8--|
D|--------------------------------------------------|
A|--------------------------------------------------|
D|--------------------------------------------------|

0:38
e|-------------------------------------------|
B|----------14-------------------------------|
G|----------------11-------------------------|
D|-13-11-13----13----13--11-13-11-13-11-13\--|
A|-------------------------------------------|
D|-------------------------------------------|

0:41
e|-----------------------------------------------------------------------------|
B|----------14-----------------------14--------------------------14------------|
G|----------------11------------------------11--------------------------11-----|
D|-13-11-13----13----13----11-13-11-13---13----13----11-13-11-13----13-----13--|
A|-----------------------------------------------------------------------------|
D|-----------------------------------------------------------------------------|

e|-----------------------------------------------------------------------------|
B|----------14-----------------------14----------------------------------------|
G|----------------11------------------------11----11--1313131313-111111-101010-|
D|-13-11-13----13----13----11-13-11-13---13----13------------------------------|
A|-----------------------------------------------------------------------------|
D|-----------------------------------------------------------------------------|

e|-----------------------------------------------------------------------------|
B|----------14-----------------------14--------------------------14------------|
G|----------------11------------------------11--------------------------11-----|
D|-13-11-13----13----13----11-13-11-13---13----13----11-13-11-13----13-----13--|
A|-----------------------------------------------------------------------------|
D|-----------------------------------------------------------------------------|

e|-----------------------------------------------------------------------------|
B|----------14-----------------------14----------------------------------------|
G|----------------11------------------------11----11--1313131313-111111-1010-8-|
D|-13-11-13----13----13----11-13-11-13---13----13------------------------------|
A|-----------------------------------------------------------------------------|
D|-----------------------------------------------------------------------------|

1:14
e|--------------------------------------------------------|
B|--7-7--7-7-----7-7--7-7-----7-7--7-7-----7-7--7-7-------|
G|-8888-8888----8888-8888----8888-8888----8888-8888--8888-|
D|--------------------------------------------------------|
A|--------------------------------------------------------|
D|--------------------------------------------------------|

1:27
e|-----------------|
B|-----------------|
G|-8-6-4----4-6-8--|
D|-8-6-4----4-6-8--|
A|-6-4-2----2-4-6--|
D|-----------------|

1:31
e|-----------------------------------------------------------------------------|
B|----------14-----------------------14--------------------------14------------|
G|----------------11------------------------11--------------------------11-----|
D|-13-11-13----13----13----11-13-11-13---13----13----11-13-11-13----13-----13--|
A|-----------------------------------------------------------------------------|
D|-----------------------------------------------------------------------------|

e|-----------------------------------------------------------------------------|
B|----------14-----------------------14----------------------------------------|
G|----------------11------------------------11----11--1313131313-111111-101010-|
D|-13-11-13----13----13----11-13-11-13---13----13------------------------------|
A|-----------------------------------------------------------------------------|
D|-----------------------------------------------------------------------------|

e|-----------------------------------------------------------------------------|
B|----------14-----------------------14--------------------------14------------|
G|----------------11------------------------11--------------------------11-----|
D|-13-11-13----13----13----11-13-11-13---13----13----11-13-11-13----13-----13--|
A|-----------------------------------------------------------------------------|
D|-----------------------------------------------------------------------------|

e|-----------------------------------------------------------------------------|
B|----------14-----------------------14----------------------------------------|
G|----------------11------------------------11----11--1313131313-111111-1010-8-|
D|-13-11-13----13----13----11-13-11-13---13----13------------------------------|
A|-----------------------------------------------------------------------------|
D|-----------------------------------------------------------------------------|

1:56
e|----------------|
B|----------------|
G|----------------|
D|-6-6-6---6-6-6--|
A|-6-6-6---6-6-6--|
D|-6-6-6---6-6-6--|

1:58
e|---------------------------------------------------------------|
B|---------------------------------------------------------------|
G|-88888b9999--88888b9999--8888b9999--8888B9999---8888888\\\\\---|
D|---------------------------------------------------------------|
A|---------------------------------------------------------------|
D|---------------------------------------------------------------|

2:09
e|------------------------------------------------------------------------|
B|-14\4/7--99999999---14\4/7-9-9-9-9-----14\4/7-9999999---14\4/7-9999999--|
G|------------------------------------------------------------------------|
D|------------------------------------------------------------------------|
A|------------------------------------------------------------------------|
D|------------------------------------------------------------------------|

2:18
e|----------14----13---------------------------|
B|-16-14-16----16----16-14-16-14-16-14-16\-----|
G|---------------------------------------------|
D|---------------------------------------------|
A|---------------------------------------------|
D|---------------------------------------------|

2:23
e|-----------------------------------------------------------------------------|
B|----------14-----------------------14--------------------------14------------|
G|----------------11------------------------11--------------------------11-----|
D|-13-11-13----13----13----11-13-11-13---13----13----11-13-11-13----13-----13--|
A|-----------------------------------------------------------------------------|
D|-----------------------------------------------------------------------------|

e|-----------------------------------------------------------------------------|
B|----------14-----------------------14----------------------------------------|
G|----------------11------------------------11----11--1313131313-111111-101010-|
D|-13-11-13----13----13----11-13-11-13---13----13------------------------------|
A|-----------------------------------------------------------------------------|
D|-----------------------------------------------------------------------------|

e|-----------------------------------------------------------------------------|
B|----------14-----------------------14--------------------------14------------|
G|----------------11------------------------11--------------------------11-----|
D|-13-11-13----13----13----11-13-11-13---13----13----11-13-11-13----13-----13--|
A|-----------------------------------------------------------------------------|
D|-----------------------------------------------------------------------------|

e|-----------------------------------------------------------------------------|
B|----------14-----------------------14----------------------------------------|
G|----------------11------------------------11----11--1313131313-1616161515--8-|
D|-13-11-13----13----13----11-13-11-13---13----13------------------------------|
A|-----------------------------------------------------------------------------|
D|-----------------------------------------------------------------------------|




== GUITAR TWO (RHYTHM) ==

0:05
e|--------------------------------------------------------------------|
B|--------------------------------------------------------------------|
G|------------------4444444444444444----------------------------------|
D|-1111111111111111-4444444444444444-4444444444444444-46666-69999--1~-|
A|-1111111111111111-2222222222222222-4444444444444444-46666-69999--1~-|
D|-1111111111111111------------------4444444444444444-46666-69999--1~-|

0:27
e|-------------------------------------------------------------------|
B|-------------------------------------------------------------------|
G|-8-8-8-8-8-8-8-8---------------8-8-8-8-8-8-8-8---------------------|
D|-----------------9-9-9-9-9-9-9-----------------9-9-9-9-9-9-9---1~--|
A|---------------------------------------------------------------1~--|
D|---------------------------------------------------------------1~--|

0:41
e|-----------------------------------------------------------------|
B|-----------------------------------------------------------------|
G|------------------4444444444444444-------------------------------|
D|-1111111111111111-4444444444444444-4444444444444444-46666-69999--|
A|-1111111111111111-2222222222222222-4444444444444444-46666-69999--|
D|-1111111111111111------------------4444444444444444-46666-69999--|

e|-----------------------------------------------------------------|
B|-----------------------------------------------------------------|
G|------------------4444444444444444-------------------------------|
D|-1111111111111111-4444444444444444-4444444444444444-46666-69999--|
A|-1111111111111111-2222222222222222-4444444444444444-46666-69999--|
D|-1111111111111111------------------4444444444444444-46666-69999--|

1:13
e|---------------------------------------------------------------|
B|---------------------------------------------------------------|
G|-8-8-8-8-8-8-8-8---------------8-8-8-8-8-8-8-8-----------------|
D|-----------------9-9-9-9-9-9-9-----------------9-9-9-9-9-9-9---|
A|---------------------------------------------------------------|
D|---------------------------------------------------------------|

1:25
e|-----------------------------------------|
B|-----------------------------------------|
G|-----------------------------------------|
D|-13-11-9----9-11-13----------------------|
A|-13-11-9----9-11-13----------------------|
D|-13-11-9----9-11-13-----xxxxxx---xxxxxx--|

1:29
e|-----------------------------------------------------------------|
B|-----------------------------------------------------------------|
G|------------------4444444444444444-------------------------------|
D|-1111111111111111-4444444444444444-4444444444444444-46666-69999--|
A|-1111111111111111-2222222222222222-4444444444444444-46666-69999--|
D|-1111111111111111------------------4444444444444444-46666-69999--|

e|-----------------------------------------------------------------|
B|-----------------------------------------------------------------|
G|------------------4444444444444444-------------------------------|
D|-1111111111111111-4444444444444444-4444444444444444-46666-69999--|
A|-1111111111111111-2222222222222222-4444444444444444-46666-69999--|
D|-1111111111111111------------------4444444444444444-46666-69999--|

1:56
e|----------------|
B|----------------|
G|----------------|
D|-6-6-6---6-6-6--|
A|-6-6-6---6-6-6--|
D|-6-6-6---6-6-6--|

1:57
e|-------------------------------------------------------------------------|
B|-------------------------------------------------------------------------|
G|-------------------------------------------------------------------------|
D|-11--1-4-6666666----11--1-4-6666666----11--1-4-6666666---11--1-4-6666\\--|
A|-11--1-4-6666666----11--1-4-6666666----11--1-4-6666666---11--1-4-6666\\--|
D|-11--1-4-6666666----11--1-4-6666666----11--1-4-6666666---11--1-4-6666\\--|

e|-----------------------------------------------------------------------|
B|-----------------------------------------------------------------------|
G|-----------------------------------------------------------------------|
D|-11--1-4-6666666----11--1-4--6-6-6------11--1-4-6666666-1~-------------|
A|-11--1-4-6666666----11--1-4--6-6-6------11--1-4-6666666-1~-------------|
D|-11--1-4-6666666----11--1-4--6-6-6------11--1-4-6666666-1~-------------|

2:22
e|-----------------------------------------------------------------|
B|-----------------------------------------------------------------|
G|------------------4444444444444444-------------------------------|
D|-1111111111111111-4444444444444444-4444444444444444-46666-69999--|
A|-1111111111111111-2222222222222222-4444444444444444-46666-69999--|
D|-1111111111111111------------------4444444444444444-46666-69999--|

e|-----------------------------------------------------------------|
B|-----------------------------------------------------------------|
G|------------------4444444444444444-------------------------------|
D|-1111111111111111-4444444444444444-4444444444444444-46666-69999--|
A|-1111111111111111-2222222222222222-4444444444444444-46666-69999--|
D|-1111111111111111------------------4444444444444444-46666-69999--|

2:45
e|-----------------------|
B|-----------------------|
G|-----------------------|
D|-1~-----------------1--|
A|-1~-----------------1--|
D|-1~--xxxxxx-xxxxxx--1--|




== GUITAR THREE (EXTRA LEAD) ==

2:33
e|----------14----13----------------14----13----------------14----13-------|
B|-16-14-16----16----16-14-16-14-16----16----16-14-16-14-16----16----16-14-|
G|-------------------------------------------------------------------------|
D|-------------------------------------------------------------------------|
A|-------------------------------------------------------------------------|
D|-------------------------------------------------------------------------|

e|----------14----13----------------14----13-------------------------------|
B|-16-14-16----16----16-14-16-14-16----16----16-16-16-16-16-16-16-16-16~~--|
G|-------------------------------------------------------------------------|
D|-------------------------------------------------------------------------|
A|-------------------------------------------------------------------------|
D|-------------------------------------------------------------------------|

            
            
Suggest correction
Creating personal tab
Creating personal tab
You can edit any tab online and save it as your Personal.

You can edit, replace or remove any tab part or add personal notes – all changes will be seen only by you.

Personal tabs can be accessed anytime from any device, even offline.
Learn more »
comments
print report bad tab
guest
You may want to rate the tab now too:
select rating
Wanna post a correction for this tab? Suggest correction