Oops, an error
Loading. Please wait.

Underdog bass

version 1
version 1

Whole song

Interactive

21,117 views 9 this week
no commentswrite comment
1 2 3 4 5
x 5
add to favorites
×
Save as Personal and add changes to this tab that will be seen only by you. Learn more ›
×
You can save this tab as Personal to edit and correct it or add notes. All changes will be seen only by you. Learn more »
launch autoscroll
font size
0
reset
guitar tuner
edit
Autoscroll
slow
fast
+/-
esc
set tempo
stop
-------------------------------------------------------------------------------
			     Underdog - You Me At Six
-------------------------------------------------------------------------------

Tabbed By : Sid
e-mail: sidtheboon@hotmail.com

Tuning: Drop D

Saw them play this live and from what i saw live and from videos and shiz this is 
how i play it, fun to play and you me at six rock enough said

Intro:
No Bass

Pre-Chorus Thing: (not exact number of eights but you get the idea)
G|-------------------|
D|-------------------|
A|-------------------|
D|--88888888888--8~--|

Chorus: (only play bracketed note second time round
G|-------------------------------------------|x2
D|-------------------------------------------|
A|--------------------4-4-4-4----------------|
D|--8-8-8-8--4-4-4-4-----------6-6-6-6--(8~)-|

Verse 2:
G|------------------------------------| x2
D|------------------------------------|
A|--4-4-4-4---------------------------|
D|-----------8-8-8-8--6-6-6-6--6-6-6--|

G|---------------------------|x2
D|---------------------------|
A|--4-4h8--------------------|
D|---------8-8p6--6-6p4-4h6--|

G|---------------------------------------|
D|---------------------------------------|
A|---------------------------------------|
D|--8~----6h8-6h8-6h8/--4-4-4-4-6-6-6-6--|

Chorus 2:
G|---------------------------------------|x4
D|---------------------------------------|
A|--------------------4-4-4-4------------|
D|--8-8-8-8--4-4-4-4-----------6-6-6-6---|

Bridge:
G|-------------------|
D|-------------------|
A|-------------------|
D|--8-8-8-8-8-8-8-8--|

G|-------------------------------------|x2
D|-------------------------------------|
A|-----------4-4-4-4-------------------|
D|--4-4-4-4-----------6-6-6-6-6-6-6-6--|

Stops

G|-------------------------------|
D|-------------------------------|
A|-----4-4-4-4-------------------|
D|--4-----------6-6-6-6-6-6-6-6--|

G|-------------------------------------|
D|-------------------------------------|
A|-----------4-4-4-4-------------------|
D|--4-4-4-4-----------6-6-6-6-6-6-6-6--|

G|--------------------|
D|--------------------|
A|--4-4-4-4-----------|
D|-----------4-4-4-4--|

Final Chorus: (Bracket notes play only on last time)
G|------------------------------------|x1
D|------------------------------------|
A|------------------4-4-4-4-----------|
D|--8~--8~--4~--4~-----------6-6-6-6--|

G|------------------------------------------|x3
D|------------------------------------------|
A|--------------------4-4-4-4---------------|
D|--8-8-8-8--4-4-4-4-----------6-6-6-6--(8~/)-| 

99% sure its right, Enjoy :)

| /  slide up
| \  slide down
| h  hammer-on
| p  pull-off
| ~  vibrato
| +  harmonic
| x  Mute note
===============================================================================

            
            
Suggest correction
Creating personal tab
Creating personal tab
You can edit any tab online and save it as your Personal.

You can edit, replace or remove any tab part or add personal notes – all changes will be seen only by you.

Personal tabs can be accessed anytime from any device, even offline.
Learn more »
comments
print report bad tab
guest
You may want to rate the tab now too:
select rating
Wanna post a correction for this tab? Suggest correction