Oops, an error
Loading. Please wait.

Youve Made Your Bed bass

version 1
version 1

Whole song

Interactive

6,989 views 1 this week
1 commentread comment
1 2 3 4 5
x 6
add to favorites
×
Save as Personal and add changes to this tab that will be seen only by you. Learn more ›
×
You can save this tab as Personal to edit and correct it or add notes. All changes will be seen only by you. Learn more »
launch autoscroll
font size
0
reset
guitar tuner
edit
Autoscroll
slow
fast
+/-
esc
set tempo
stop
Difficulty
----------------------------------------------------------------------------
	             you me at six - youve made your bed
----------------------------------------------------------------------------

Tabbed by: Kris
Email: ralph_wiggum_wanna_be@yahoo.co.uk

Tuning: Standard

This is what I played live with my band but I tabbed this by ear so if there any 
that you can correct please email me


Intro/ Verse (x4)
G|----------------------------------------------------------------------|
D|----------------------------------77777777777777779999999999999999----|
A|--99999999999999997777777777777777------------------------------------|
E|----------------------------------------------------------------------|

G|-----------------------------------------------------------------------------------|
D|-----------------------------------------------------------------------------------|(x2)
A|--9-------------------7-------------------5-------------------7--------------------|
E|-----------------------------------------------------------------------------------|
       You've Made Your Bed    So sleep in it              and never call me again


Chorus (x2)
G|----------------------------------------------------------------------|
D|----------------------------------------------------------------------|
A|--99999999999999995555555555555555----------------7777777777777777----|
E|----------------------------------2222222222222222--------------------|


Verse 2 (x3)

G|---------------------------------------|
D|------------------77-777--99-99-999----|
A|--99-999--77-777-----------------------|
E|---------------------------------------|

G|-----------------------------------------------------------------------------------|
D|-----------------------------------------------------------------------------------|(x2)
A|--9-------------------7-------------------5-------------------7--------------------|
E|-----------------------------------------------------------------------------------|
      You've Made Your Bed    So sleep in it              and never call me again


Chorus (x2)
G|----------------------------------------------------------------------|
D|----------------------------------------------------------------------|
A|--99999999999999995555555555555555----------------7777777777777777----|
E|----------------------------------2222222222222222--------------------|


Bridge part 1 (x8)
G|----------------|
D|----------------|
A|--2222--2222----|
E|----------------|
(Play in time with guitar, come in at vocals)

Bridge part 2 (x2)
G|---------------------------------------|
D|---------------------------------------|
A|--22224444777777777--22224444777777----|
E|---------------------------------------|


Chorus (x2)
G|----------------------------------------------------------------------|
D|----------------------------------------------------------------------|
A|--99999999999999995555555555555555----------------7777777777777777----|
E|----------------------------------2222222222222222--------------------|


Outro
G|-----------------------------------------------------|
D|--------------------------77-77-77-77-99-99-99-99----|
A|--99-99-99-99-77-77-77-77----------------------------|
E|-----------------------------------------------------|


Ending
G|-----------------------------------------------------|
D|--------------------------7-----------9--------------|
A|--9-----------7--------------------------------------|
E|-----------------------------------------------------|

            
            
Suggest correction
Creating personal tab
Creating personal tab
You can edit any tab online and save it as your Personal.

You can edit, replace or remove any tab part or add personal notes – all changes will be seen only by you.

Personal tabs can be accessed anytime from any device, even offline.
Learn more »
comments
print report bad tab
1 comment total.
0 reply
jiggy182 92 Feb 22, 2009 03:06 PM

G|---------------------------------------|
D|------------------77-777--99-99-999----|
A|--99-999--77-777-----------------------|
E|---------------------------------------|

Pretty sure the below is correct, in verse two the bass clearly goes to the d

G|---------------------------------------|
D|---------------------------------------|
A|--99-999--77-777--55-555--77-77-777----|
E|---------------------------------------|

Otherwise 5/5

guest
Wanna post a correction for this tab? Suggest correction