Oops, an error
Loading. Please wait.

Save The Date chords

88 views 1 this week
no commentswrite comment
1 2 3 4 5
1 last vote to show rating
add to favorites
×
Save as Personal and add changes to this tab that will be seen only by you. Learn more ›
×
You can save this tab as Personal to edit and correct it or add notes. All changes will be seen only by you. Learn more »
launch autoscroll
font size
0
reset
transpose
0
reset
simplify chords
display chords
guitar tuner
edit
Autoscroll
slow
fast
+/-
esc
set tempo
stop
Author
Difficulty
Strumming
There is no strumming pattern for this song yet. and get +5 IQ
Artist: Young Chinese Dogs
Song: save the date
album: Great Lake State
tabbed by: fr3shb4ng

[Chords]
     G      G/F#    Em7    Cadd9    G/B
e|---3---|---3---|---3---|---3---|---3---|
B|---3---|---3---|---3---|---3---|---3---|
G|---0---|---0---|---0---|---0---|---0---|
D|---0---|---0---|---2---|---3---|---0---|
A|---2---|---x---|---2---|---2---|---2---|
E|---3---|---2---|---x---|---x---|---x---|

[Riff 1]
e|-------------------------------------------------------------|
B|----12--12--12--12--10--10--10--10--8--8--8--8--8--8--8--8---|
G|-------------------------------------------------------------|
D|-------------------------------------------------------------|      (x4)
A|--10--10--10--10--9---9---9---9---7--7--7--7-----------------|
E|-----------------------------------------------8--8--8--8----|

somebody on the wrong road
somebody on the wrong side
a second in a whole life
that will slowly die

by chance for the first time
on purpous on a long line
some numbers on a call sign
that will slowly fade away

e|--------------------------|
B|--8--8--8--8--8--8--8--8--|
G|--------------------------|
D|--------------------------|
A|--------------------------|
E|-8--8--8--8--8--8--8--8---|

[Chorus]
          G                              G/F#
save your tears, they all ain't worth crying,
                Em7                      Cadd9
its all about denying, that we were ever here
         G                        G/F#
save the date, for dancing in the shadows,
                   Em7                  Cadd9
a million words between us, slowly fade away, slowly fade away...

[Riff 1]
e|-------------------------------------------------------------|
B|----12--12--12--12--10--10--10--10--8--8--8--8--8--8--8--8---|
G|-------------------------------------------------------------|
D|-------------------------------------------------------------|      (x4)
A|--10--10--10--10--9---9---9---9---7--7--7--7-----------------|
E|-----------------------------------------------8--8--8--8----|

a shadow on a window
the light and the wind blow
pictures of a world that
we will never take
the glimpse of forever
the chance of a never
colours that will slowly
but surely fade away

e|--------------------------|
B|--8--8--8--8--8--8--8--8--|
G|--------------------------|
D|--------------------------|
A|--------------------------|
E|-8--8--8--8--8--8--8--8---|

[Chorus]
          G                              G/F#
save your tears, they all ain't worth crying,
                Em7                      Cadd9
its all about denying, that we were ever here
         G                        G/F#               (x2)
save the date, for dancing in the shadows,
                   Em7                  Cadd9
a million words between us, slowly fade away

[Riff 2 - Bridge]
e|----------------------------------------------------------------------|
B|------8------8--------8-------8-------8-------8---------8--------8----|
G|----------------------------------------------------------------------|
D|----------------------------------------------------------------------|      (x4)
A|--------------------------------------------------10-10---10-9-9---9--|
E|--8-8---8-8-8---8-7-7---7-7-7---7-0-0---0-0-0---0---------------------|

(then follow the same rhythm/strum pattern playing:)

Cadd9           G/B            Em7              G        G/F#         (x4)

uh oh oh...       
(end on Cadd9)

[Riff 1]
e|-------------------------------------------------------------|
B|----12--12--12--12--10--10--10--10--8--8--8--8--8--8--8--8---|
G|-------------------------------------------------------------|
D|-------------------------------------------------------------|
A|--10--10--10--10--9---9---9---9---7--7--7--7-----------------|
E|-----------------------------------------------8--8--8--8----|

save the date, for dancing in the shadows,
a million words between us, slowly fade away.        
(end on G)

            
            
Suggest correction
Creating personal tab
Creating personal tab
You can edit any tab online and save it as your Personal.

You can edit, replace or remove any tab part or add personal notes – all changes will be seen only by you.

Personal tabs can be accessed anytime from any device, even offline.
Learn more »
Give kudos to tab author, rate the tab!
1 2 3 4 5
comments
print report bad tab
guest
You may want to rate the tab now too:
select rating
Wanna post a correction for this tab? Suggest correction