Oops, an error
Loading. Please wait.

Terra Firma tab

version 1
version 1

Whole song

2,257 views 1 this week
4 commentsread comments
1 2 3 4 5
x 3
add to favorites
×
Save as Personal and add changes to this tab that will be seen only by you. Learn more ›
×
You can save this tab as Personal to edit and correct it or add notes. All changes will be seen only by you. Learn more »
launch autoscroll
font size
0
reset
how to read this tab
guitar tuner
edit
Autoscroll
slow
fast
+/-
esc
set tempo
stop
This is 'The Young Knives' new song, called 'Terra Firma'

If you find out the rest of the song, please send me a message!

Enjoy!

Introduction

E--------------------|
B--------------------|
G------4-------------|
D------------ Repeat-| 16 Times
A---2----------------|
E--------------------|

E-----------------------------------------------|
B-----------------------------------------------|
G-----------------------------------------------|
D-----------------------------------------------|
A---5-7-9--5-7-9--5-7-9--5-7-9--5-7-9-----------|
E-----------------------------------------------|

Chorus

E--------------------------------------------------|
B--------------------------------------------------|
G------4------------7----------6------------5------|
D---------X16----------X4----------X2----------X2--|
A---2-----------5-----------4------------3---------|
E--------------------------------------------------|

            
            
Suggest correction
Creating personal tab
Creating personal tab
You can edit any tab online and save it as your Personal.

You can edit, replace or remove any tab part or add personal notes – all changes will be seen only by you.

Personal tabs can be accessed anytime from any device, even offline.
Learn more »
Give kudos to tab author, rate the tab!
1 2 3 4 5
comments
print report bad tab
4 comments total. Showing first comments.
0 reply
DaveyC 20 Nov 23, 2007 06:07 AM

Great tab, just lacking the solo unfortunately.

Still warrants 5 stars though.

Dave

-1 reply
treblechamp 41 Mar 28, 2008 01:24 PM

Good Tab.

i have a few difficulties reaching the 5 7 9 for a long time though and play it slightly different

E-----------------------------------------------|
B-----------------------------------------------|
G-----------------------------------------------|
D-------4-----4-----4-----4---------------------|
A---5-7---5-7---5-7---5-7---5-7-7-5-------------|
E-----------------------------------------------|

Try that one out as it seems to flow a bit better with the end bit in the loop

0 reply
AAguiar 10 Apr 22, 2010 06:22 AM

http://www.youtube.com/watch?v=GRayaOwvE_U&feature=fvsr

Here you can see well how it´s starts before your introduction, I just can´t get which chord he plays right at the beginning. and some riffs right at the end of each of these progressions.

E-----------------------------------------------|
B-------------------------5\2-------------------|
G--------------2--4--4/6------------------------|
D--------2--4-----------------------------------|
A---0--4----------------------------------------|
E-----------------------------------------------|

Missing a small riff here

E-----------------------------------------------|
B-----------------------------------------------|
G--------------2--4--4/6--6--4/2----------------|
D--------2--4-----------------------------------|
A---0--4----------------------------0--0--------|
E-----------------------------------------------|

and instead of 5,7,9 on A try:

E-----------------------------------------------|
B-----------------------------------------------|
G-----------------------------------------------|
D--0--2--4--(x16)-------------------------------|
A-----------------------------------------------|
E-----------------------------------------------|

I also have to say that I'm quite a newbie to this tabbing songs thing....but I think this is pretty accurate! =)
Hope I helped.

guest
You may want to rate the tab now too:
select rating
Wanna post a correction for this tab? Suggest correction