Oops, an error
Loading. Please wait.

Turn Tail tab

version 1
version 1

Whole song

1,620 views 1 this week
1 commentread comment
1 2 3 4 5
2 more votes to show rating
add to favorites
×
Save as Personal and add changes to this tab that will be seen only by you. Learn more ›
×
You can save this tab as Personal to edit and correct it or add notes. All changes will be seen only by you. Learn more »
launch autoscroll
font size
0
reset
how to read this tab
guitar tuner
edit
Autoscroll
slow
fast
+/-
esc
set tempo
stop
Here is what I play for the riffs through out the song :

Riff 1 

|-----3-------3-------3-------3-----------------------------|
|-1-1-----1-1-----1-1-----1-1-------------------------------|
|-----------------------------------------------------------|
|-----------------------------------------------------------|
|-----------------------------------------------------------| 
|-----------------------------------------------------------| 

Riff 2 

|-----------------------------------------------------------|
|----5-5-5-5--------6-6-6-6-5-------------------------------|
|------------5-5--------------------------------------------|
|-----------------------------------------------------------|
|-----------------------------------------------------------| 
|-----------------------------------------------------------|

            
            
Suggest correction
Creating personal tab
Creating personal tab
You can edit any tab online and save it as your Personal.

You can edit, replace or remove any tab part or add personal notes – all changes will be seen only by you.

Personal tabs can be accessed anytime from any device, even offline.
Learn more »
Give kudos to tab author, rate the tab!
1 2 3 4 5
comments
print report bad tab
1 comment total.
0 reply
Centre 10 Mar 05, 2010 08:05 PM

This definitely sounds right.

I have another way to play it that makes it a little easier... Don't have to move your fingers as much.

On the first riff, play the G string in the 5th fret. You can leave that finger down for the second riff, so it takes a lot less movement this way.

guest
Wanna post a correction for this tab? Suggest correction