Oops, an error
Loading. Please wait.
We have an official Forever Young tab made by UG professional guitarists. Check out the tab »
×
1,342 views 3 this week
no commentswrite comment
1 2 3 4 5
x 3
add to favorites
×
Save as Personal and add changes to this tab that will be seen only by you. Learn more ›
×
You can save this tab as Personal to edit and correct it or add notes. All changes will be seen only by you. Learn more »
launch autoscroll
font size
0
reset
how to read this tab
guitar tuner
edit
Autoscroll
slow
fast
+/-
esc
set tempo
stop
Forever Young - Youth Group
Tabbed by Mike Shaheen

Capo on the 4th fret. Read description, easier than it looks

Don't let the names of the chords scare you, they're really simple.
Reverse chord finder gives them ridiculous names, so for the sake of this tab just see the chart below


e|-----------------|-------------------|-----------------|-----------------|
B|-----3-----3---3-|-----3-----3---3/0-|-----0-----0---0-|-----0-----0---0-|
G|---0-----0-------|---0-----0---------|---0-----0-------|---0-----0-------|
D|-----------------|-------------------|-----------------|-----------------|
A|-----------------|-------------------|-----------------|-3-----3-----3---|
E|-3-----3-----3---|-3-----3-----3-----|-0-----0-----0---|-----------------|


e|-----------------|-----------------|-----------------|---------------|
B|-----0-----0---0-|-----0-----0---0-|-----0-----0---0-|-----0-------3-|
G|---2-----2-------|---2-----2-------|---0-----0-------|---2---2---0---|
D|-0-----0-----0---|-----------------|-----------------|---------------|
A|-----------------|-----------------|-3-----3-----3---|-3-------------|
E|-----------------|-2-----2-----2---|-----------------|---------------|

Play that 4 times, then the song starts. Second guitar repeats those riffs through the whole song,
which you can also do instead of the chords


  G?  G6/9   Em   CsusD Dadd9/F#
|-3-| |-3-| |-0-| |-0-| |-0-|
|-3-| |-3-| |-0-| |-1-| |-3-|
|-0-| |-0-| |-0-| |-0-| |-2-|
|-0-| |-2-| |-2-| |-0-| |-0-|
|-2-| |-0-| |-2-| |-3-| |-0-|
|-3-| |-3-| |-x-| |-x-| |-2-|


The chords go in this order through the entire song
G?, G6/9, Em, C, D, Em, C, D

If that's still too complicated, play two normal G's and a D without fretting the high-e.
 
They follow the same strum pattern
ddD ddD dD (d-soft strum D-normal strum)

            
            
Suggest correction
Creating personal tab
Creating personal tab
You can edit any tab online and save it as your Personal.

You can edit, replace or remove any tab part or add personal notes – all changes will be seen only by you.

Personal tabs can be accessed anytime from any device, even offline.
Learn more »
Give kudos to tab author, rate the tab!
1 2 3 4 5
comments
print report bad tab
guest
You may want to rate the tab now too:
select rating
Wanna post a correction for this tab? Suggest correction