Oops, an error
Loading. Please wait.
We have an official Forever Young tab made by UG professional guitarists. Check out the tab »
×
13 views 1 this week
no commentswrite comment
1 2 3 4 5
3 more votes to show rating
add to favorites
×
Save as Personal and add changes to this tab that will be seen only by you. Learn more ›
×
You can save this tab as Personal to edit and correct it or add notes. All changes will be seen only by you. Learn more »
launch autoscroll
font size
0
reset
how to read this tab
guitar tuner
edit
Autoscroll
slow
fast
+/-
esc
set tempo
stop
[Intro]

e|-----2-----2-|-----2-----2-|
B|-------------|-------------|
G|-4-4---4-4---|-4-4---4-4---|
D|-------------|-------------|
A|-------------|-------------|
E|-------------|-------------|

[Verse]

e|-----2-----2---2--|-----2-----2---2--|------------------|-----------------|
B|------------------|------------------|-----4-----4---4--|-----4-----4---4-|
G|-4-4---4-4---4----|-4-4---4-4---4----|------------------|-----------------|
D|------------------|------------------|-6-6---6-6---6----|-2-2---2-2---2---|
A|------------------|------------------|------------------|-----------------|
E|------------------|------------------|------------------|-----------------|

e|------------------|------------------|------------------|-----------------|
B|-----4-----4---4--|-----4-----4---4--|-----4-----4---4--|-----2-----2---0-|
G|------------------|------------------|------------------|-----------------|
D|-4-4---4-4---4----|-6-6---6-6---6----|-2-2---2-2---2----|-2-2---2-2---2---|
A|------------------|------------------|------------------|-----------------|
E|------------------|------------------|------------------|-----------------|

[Verse]

e|-----2-----2---2--|-----2-----2---2--|------------------|-----------------|
B|------------------|------------------|-----4-----4---4--|-----4-----4---4-|
G|-4-4---4-4---4----|-4-4---4-4---4----|------------------|-----------------|
D|------------------|------------------|-6-6---6-6---6----|-2-2---2-2---2---|
A|------------------|------------------|------------------|-----------------|
E|------------------|------------------|------------------|-----------------|

e|------------------|------------------|------------------|-----------------|
B|-----4-----4---4--|-----4-----4---4--|-----4-----4---4--|-----2-----2---0-|
G|------------------|------------------|------------------|-----------------|
D|-4-4---4-4---4----|-6-6---6-6---6----|-2-2---2-2---2----|-2-2---2-2---2---|
A|------------------|------------------|------------------|-----------------|
E|------------------|------------------|------------------|-----------------|

[Verse]
e|-----2-----2---2--|-----2-----2---2--|------------------|-----------------|
B|------------------|------------------|-----4-----4---4--|-----4-----4---4-|
G|-4-4---4-4---4----|-4-4---4-4---4----|------------------|-----------------|
D|------------------|------------------|-6-6---6-6---6----|-2-2---2-2---2---|
A|------------------|------------------|------------------|-----------------|
E|------------------|------------------|------------------|-----------------|

e|------------------|------------------|------------------|-----------------|
B|-----4-----4---4--|-----4-----4---4--|-----4-----4---4--|-----2-----2---0-|
G|------------------|------------------|------------------|-----------------|
D|-4-4---4-4---4----|-6-6---6-6---6----|-2-2---2-2---2----|-2-2---2-2---2---|
A|------------------|------------------|------------------|-----------------|
E|------------------|------------------|------------------|-----------------|

[Chorus]
e|------------------|------------------|------------------|-----------------|
B|------------------|------------------|------------------|-----------------|
G|------------------|------------------|------------------|-----------------|
D|-4-4-4-4-4-4-4-4--|------------------|------------------|-----------------|
A|-2-2-2-2-2-2-2-2--|-4-4-4-4-4-4-4-4--|-6-6-6-6-6-6-6-6--|-2-2-2-2-2-2-2-2-|
E|------------------|-2-2-2-2-2-2-2-2--|-4-4-4-4-4-4-4-4--|-0-0-0-0-0-0-0-0-|

e|------------------|------------------|------------------|-----------------|
B|------------------|------------------|------------------|-----------------|
G|------------------|------------------|------------------|-----------------|
D|------------------|------------------|------------------|-----------------|
A|-4-4-4-4-4-4-4-4--|-6-6-6-6-6-6-6-6--|-2-2-2-2-2-2-2-2--|-2-2-2-2-2-2-2-2-|
E|-2-2-2-2-2-2-2-2--|-4-4-4-4-4-4-4-4--|-0-0-0-0-0-0-0-0--|-0-0-0-0-0-0-0-0-|

e|------------------|------------------|------------------|-----------------|
B|------------------|------------------|------------------|-----------------|
G|------------------|------------------|------------------|-----------------|
D|-4-4-4-4-4-4-4-4--|------------------|------------------|-----------------|
A|-2-2-2-2-2-2-2-2--|-4-4-4-4-4-4-4-4--|-6-6-6-6-6-6-6-6--|-2-2-2-2-2-2-2-2-|
E|------------------|-2-2-2-2-2-2-2-2--|-4-4-4-4-4-4-4-4--|-0-0-0-0-0-0-0-0-|

e|------------------|------------------|------------------|-----------------|
B|------------------|------------------|------------------|-----------------|
G|------------------|------------------|------------------|-----------------|
D|------------------|------------------|------------------|-----------------|
A|-4-4-4-4-4-4-4-4--|-6-6-6-6-6-6-6-6--|-2-2-2-2-2-2-2-2--|-2-2-2-2-2-2-2-2-|
E|-2-2-2-2-2-2-2-2--|-4-4-4-4-4-4-4-4--|-0-0-0-0-0-0-0-0--|-0-0-0-0-0-0-0-0-|

[Refrain]
e|--------------------|--------------------|-----------------|-----------------|
B|--------------------|--------------------|----------7------|-----7----7------|
G|-----11-----11------|-11-----11=---11----|-----8------8----|-------8=---8----|
D|-9-9----9-9----9-9--|----9-9-----9----9--|-6-6---6=-----9--|---6-------------|
A|--------------------|--------------------|-----------------|-7------------9--|
E|--------------------|--------------------|-----------------|-----------------|

e|-----------------|-----------------|-----------------|-----------------|
B|----------7------|----------7------|----------7------|-----------------|
G|-----8------8----|-----8------8----|-----8------8----|-6---------------|
D|-----------------|-6---------------|---6---6=--------|---6---9-6---9---|
A|-9-9---9=-----9--|---9---9=-----9--|-7------------7--|-----7-----7---9-|
E|-----------------|-----------------|-----------------|-----------------|

[Verse]
e|-----2-----2---2--|-----2-----2---2--|------------------|-----------------|
B|------------------|------------------|-----4-----4---4--|-----4-----4---4-|
G|-4-4---4-4---4----|-4-4---4-4---4----|------------------|-----------------|
D|------------------|------------------|-6-6---6-6---6----|-2-2---2-2---2---|
A|------------------|------------------|------------------|-----------------|
E|------------------|------------------|------------------|-----------------|

e|------------------|------------------|------------------|-----------------|
B|-----4-----4---4--|-----4-----4---4--|-----4-----4---4--|-----2-----2---0-|
G|------------------|------------------|------------------|-----------------|
D|-4-4---4-4---4----|-6-6---6-6---6----|-2-2---2-2---2----|-2-2---2-2---2---|
A|------------------|------------------|------------------|-----------------|
E|------------------|------------------|------------------|-----------------|

[Verse]
e|-----2-----2---2--|-----2-----2---2--|------------------|-----------------|
B|------------------|------------------|-----4-----4---4--|-----4-----4---4-|
G|-4-4---4-4---4----|-4-4---4-4---4----|------------------|-----------------|
D|------------------|------------------|-6-6---6-6---6----|-2-2---2-2---2---|
A|------------------|------------------|------------------|-----------------|
E|------------------|------------------|------------------|-----------------|

e|------------------|------------------|------------------|-----------------|
B|-----4-----4---4--|-----4-----4---4--|-----4-----4---4--|-----2-----2---0-|
G|------------------|------------------|------------------|-----------------|
D|-4-4---4-4---4----|-6-6---6-6---6----|-2-2---2-2---2----|-2-2---2-2---2---|
A|------------------|------------------|------------------|-----------------|
E|------------------|------------------|------------------|-----------------|

[Verse]
e|-----2-----2---2--|-----2-----2---2--|------------------|-----------------|
B|------------------|------------------|-----4-----4---4--|-----4-----4---4-|
G|-4-4---4-4---4----|-4-4---4-4---4----|------------------|-----------------|
D|------------------|------------------|-6-6---6-6---6----|-2-2---2-2---2---|
A|------------------|------------------|------------------|-----------------|
E|------------------|------------------|------------------|-----------------|

e|------------------|------------------|------------------|-----------------|
B|-----4-----4---4--|-----4-----4---4--|-----4-----4---4--|-----2-----2---0-|
G|------------------|------------------|------------------|-----------------|
D|-4-4---4-4---4----|-6-6---6-6---6----|-2-2---2-2---2----|-2-2---2-2---2---|
A|------------------|------------------|------------------|-----------------|
E|------------------|------------------|------------------|-----------------|

[Chorus]

e|------------------|------------------|------------------|-----------------|
B|------------------|------------------|------------------|-----------------|
G|------------------|------------------|------------------|-----------------|
D|-4-4-4-4-4-4-4-4--|------------------|------------------|-----------------|
A|-2-2-2-2-2-2-2-2--|-4-4-4-4-4-4-4-4--|-6-6-6-6-6-6-6-6--|-2-2-2-2-2-2-2-2-|
E|------------------|-2-2-2-2-2-2-2-2--|-4-4-4-4-4-4-4-4--|-0-0-0-0-0-0-0-0-|

e|------------------|------------------|------------------|-----------------|
B|------------------|------------------|------------------|-----------------|
G|------------------|------------------|------------------|-----------------|
D|------------------|------------------|------------------|-----------------|
A|-4-4-4-4-4-4-4-4--|-6-6-6-6-6-6-6-6--|-2-2-2-2-2-2-2-2--|-2-2-2-2-2-2-2-2-|
E|-2-2-2-2-2-2-2-2--|-4-4-4-4-4-4-4-4--|-0-0-0-0-0-0-0-0--|-0-0-0-0-0-0-0-0-|

e|------------------|------------------|------------------|-----------------|
B|------------------|------------------|------------------|-----------------|
G|------------------|------------------|------------------|-----------------|
D|-4-4-4-4-4-4-4-4--|------------------|------------------|-----------------|
A|-2-2-2-2-2-2-2-2--|-4-4-4-4-4-4-4-4--|-6-6-6-6-6-6-6-6--|-2-2-2-2-2-2-2-2-|
E|------------------|-2-2-2-2-2-2-2-2--|-4-4-4-4-4-4-4-4--|-0-0-0-0-0-0-0-0-|

e|------------------|------------------|------------------|-----------------|
B|------------------|------------------|------------------|-----------------|
G|------------------|------------------|------------------|-----------------|
D|------------------|------------------|------------------|-----------------|
A|-4-4-4-4-4-4-4-4--|-6-6-6-6-6-6-6-6--|-2-2-2-2-2-2-2-2--|-2-2-2-2-2-2-2-2-|
E|-2-2-2-2-2-2-2-2--|-4-4-4-4-4-4-4-4--|-0-0-0-0-0-0-0-0--|-0-0-0-0-0-0-0-0-|

[Bridge]

e|------------------|------------------|------------------|-----------------|
B|------------------|------------------|------------------|-----------------|
G|------------------|------------------|------------------|-----------------|
D|-4-4-4-4-4-4-4-4--|------------------|------------------|-----------------|
A|-2-2-2-2-2-2-2-2--|-4-4-4-4-4-4-4-4--|-6-6-6-6-6-6-6-6--|-2-2-2-2-2-2-2-2-|
E|------------------|-2-2-2-2-2-2-2-2--|-4-4-4-4-4-4-4-4--|-0-0-0-0-0-0-0-0-|

e|------------------|------------------|------------------|-----------------|
B|------------------|------------------|------------------|-----------------|
G|------------------|------------------|------------------|-----------------|
D|------------------|------------------|------------------|-----------------|
A|-4-4-4-4-4-4-4-4--|-6-6-6-6-6-6-6-6--|-2-2-2-2-2-2-2-2--|-2-2-2-2-2-2-2-2-|
E|-2-2-2-2-2-2-2-2--|-4-4-4-4-4-4-4-4--|-0-0-0-0-0-0-0-0--|-0-0-0-0-0-0-0-0-|

e|------------------|------------------|------------------|-----------------|
B|------------------|------------------|------------------|-----------------|
G|------------------|------------------|------------------|-----------------|
D|-4-4-4-4-4-4-4-4--|------------------|------------------|-----------------|
A|-2-2-2-2-2-2-2-2--|-4-4-4-4-4-4-4-4--|-6-6-6-6-6-6-6-6--|-2-2-2-2-2-2-2-2-|
E|------------------|-2-2-2-2-2-2-2-2--|-4-4-4-4-4-4-4-4--|-0-0-0-0-0-0-0-0-|

e|------------------|------------------|------------------|-----------------|
B|------------------|------------------|------------------|-----------------|
G|------------------|------------------|------------------|-----------------|
D|------------------|------------------|------------------|-----------------|
A|-4-4-4-4-4-4-4-4--|-6-6-6-6-6-6-6-6--|-2-2-2-2-2-2-2-2--|-2-2-2-2-2-2-2-2-|
E|-2-2-2-2-2-2-2-2--|-4-4-4-4-4-4-4-4--|-0-0-0-0-0-0-0-0--|-0-0-0-0-0-0-0-0-|

[Outro]

e|------------------|------------------|------------------|-----------------|
B|------------------|------------------|------------------|-----------------|
G|------------------|------------------|------------------|-----------------|
D|-4-4-4-4-4-4-4-4--|------------------|------------------|-----------------|
A|-2-2-2-2-2-2-2-2--|-4-4-4-4-4-4-4-4--|-6-6-6-6-6-6-6-6--|-2-2-2-2-2-2-2-2-|
E|------------------|-2-2-2-2-2-2-2-2--|-4-4-4-4-4-4-4-4--|-0-0-0-0-0-0-0-0-|

e|------------------|------------------|------------------|-----------------|
B|------------------|------------------|------------------|-----------------|
G|------------------|------------------|------------------|-----------------|
D|------------------|------------------|------------------|-----------------|
A|-4-4-4-4-4-4-4-4--|-6-6-6-6-6-6-6-6--|-2-2-2-2-2-2-2-2--|-2-2-2-2-2-2-2-2-|
E|-2-2-2-2-2-2-2-2--|-4-4-4-4-4-4-4-4--|-0-0-0-0-0-0-0-0--|-0-0-0-0-0-0-0-0-|

e|------------------|------------------|------------------|-----------------|
B|------------------|------------------|------------------|-----------------|
G|------------------|------------------|------------------|-----------------|
D|-4-4-4-4-4-4-4-4--|------------------|------------------|-----------------|
A|-2-2-2-2-2-2-2-2--|-4-4-4-4-4-4-4-4--|-6-6-6-6-6-6-6-6--|-2-2-2-2-2-2-2-2-|
E|------------------|-2-2-2-2-2-2-2-2--|-4-4-4-4-4-4-4-4--|-0-0-0-0-0-0-0-0-|

e|------------------|------------------|-----------|
B|------------------|------------------|-----------|
G|------------------|------------------|-----6---4-|
D|------------------|------------------|-----------|
A|-4-4-4-4-4-4-4-4--|-6-6-6-6-6-6-6-6--|-2---------|
E|-2-2-2-2-2-2-2-2--|-4-4-4-4-4-4-4-4--|-0---------|

************************************

| x   Dead note
| g   Grace note
| (n) Ghost note
| h   Hammer-on
| p   Pull-off
| r   Release
| >   Accented note
| t   Tapping
| b   Bend
| br  Bend release
| pb  Pre-bend
| pbr Pre-bend release
| /   Slide up
| \   Slide down
| ~   Vibrato
| s   Slap
| P   Pop
| PM  Palm mute
| TR  Trill
| N   Tremolo

************************************

            
            
Suggest correction
Creating personal tab
Creating personal tab
You can edit any tab online and save it as your Personal.

You can edit, replace or remove any tab part or add personal notes – all changes will be seen only by you.

Personal tabs can be accessed anytime from any device, even offline.
Learn more »
Give kudos to tab author, rate the tab!
1 2 3 4 5
comments
print report bad tab
guest
You may want to rate the tab now too:
select rating
Wanna post a correction for this tab? Suggest correction