Oops, an error
Loading. Please wait.

17 tab

version 2
version 2

Whole song

2,219 views 12 this week
3 commentsread comments
1 2 3 4 5
x 5
add to favorites
×
Save as Personal and add changes to this tab that will be seen only by you. Learn more ›
×
You can save this tab as Personal to edit and correct it or add notes. All changes will be seen only by you. Learn more »
launch autoscroll
font size
0
reset
how to read this tab
guitar tuner
edit
Autoscroll
slow
fast
+/-
esc
set tempo
stop
Author
Based around the chords submitted by David McDougal!
I translated the intro and the instrumental parts by ear for the first time, so sorry if 
there are any mistakes
and let me know so I can fix them.
Listen to the music for the rhythm and such. (:
Enjoy!!

intro:

|---------------0---0-----------|--------0--------|
|---1-------1---------1---------|-------(0)-1-----|
|---0---0h2---2----------0-2-0--|---0-2-(0)---2-0-|
|---2-------------------(0)-(0)-|-----------------|
|---3---------------------------|-----------------|
|-------------------------------|-----------------|


|---------------0---0-----------|--------0--------|
|---1-------1---------1---------|-------(0)-1-----|
|-0-0---0h2---2----------0-2-0--|---0-2-(0)---2-0-|
|---2-------------------(0)-(0)-|-----------------|
|---3---------------------------|-----------------|
|-------------------------------|-----------------|

C                               F             C
Roaming the camp ground up by the lake where we swam.
        F           C
We were hunting for snakes,
        F            C
But we couldn't find them.
C
Surrounded by nothing,
                   F            C
But the nothing's surrounded by us.
              F         C
But it's just me in my room,
F         C
With my eyes shut.

(Chorus)

        Am    C
Oh when I was seventeen,
   F      C
My mother said to me
Am         C             F                      C
Don't stop imagining The day that you do is the day that you die.
    Am       C
Now I pull a one-ton carriage,
   F                   C
Instead of the horses, grazing along.
Am    C
I was having fun.
F                  C
We were all having fun.


Chords: Am  C  F  C (x2)

OR

instrumental bit

|-0-3-5-5-5-3--0--3-5-0-|-0-0-0--0----------------|
|-----------------------|--3-------3-1--3-33-111--|
|-----------------------|-------------------------|
|-----------------------|-------------------------|
|-----------------------|-------------------------|
|-----------------------|-------------------------|x2

|-----------------------|
|-1-0-1-(1)-------------|
|--------0--------------|
|-------(2)-------------|
|-------(3) ------------|
|-----------------------|

   C                                                F        C
My brain kicking faster than I can, but not fast enough.
F               C
Who is there to talk to
     F             C
That won't lock me up?
   C                                 F                    C
At least God doesn't judge me by the thoughts that aren't mine.
           F          C
The snakes I couldn't find,
  F             C
I don't want to find.


C   Am   F   C (4x)
Ohhhhh

(Chorus)x2

        Am    C
Oh when I was seventeen,
   F      C
My mother said to me
Am         C             F                      C
Don't stop imagining The day that you do is the day that you die.
    Am       C
Now I pull a one-ton carriage,
   F                   C
Instead of the horses, grazing along.
Am    C
I was having fun.
F                  C
We were all having fun.

|-0-3-5-5-5-3--0--3-5-0-|-0-0-0--0----------------|
|-----------------------|--3-------3-1--3-33-111--|
|-----------------------|-------------------------|
|-----------------------|-------------------------|
|-----------------------|-------------------------|
|-----------------------|-------------------------|x2

            
            
Suggest correction
Creating personal tab
Creating personal tab
You can edit any tab online and save it as your Personal.

You can edit, replace or remove any tab part or add personal notes – all changes will be seen only by you.

Personal tabs can be accessed anytime from any device, even offline.
Learn more »
comments
print report bad tab
3 comments total.
0 reply
LauraLavina 10 Mar 10, 2017 09:11 AM

great tab , thank you! wwhat does brackets mean?

0 reply
DanielleTran 44 Jun 01, 2017 02:38 AM

I replied in the tab comments instead of to you. Sorry about that!

0 reply
DanielleTran 44 May 31, 2017 12:35 PM

Thank you!!! If you are referring to the parantheses around the 0s, they are optional to play along with the chords, but may enhance the sound if you prefer it :)

guest
You may want to rate the tab now too:
select rating
Wanna post a correction for this tab? Suggest correction