Oops, an error
Loading. Please wait.

Mornar tab

70 views 3 this week
no commentswrite comment
1 2 3 4 5
3 more votes to show rating
add to favorites
×
Save as Personal and add changes to this tab that will be seen only by you. Learn more ›
×
You can save this tab as Personal to edit and correct it or add notes. All changes will be seen only by you. Learn more »
launch autoscroll
font size
0
reset
how to read this tab
guitar tuner
edit
Autoscroll
slow
fast
+/-
esc
set tempo
stop
Author
Difficulty
About this tab version
No tab for this song, here you go. Was this info helpful? Yes No
TITLE: Mornar - Lead
ARTIST: Yu Grupa
LENGTH: 3:43 (MAXIMUM DIFFICULTY LEVEL)
TUNING: Standard (E A D G B e)
By Fuchead              
                    
   ''''  ''''  '''' 
e|-----|-----|-----|
B|-----|-----|-----|
G|-----|-----|-----|
D|-----|-----|-----|
A|-----|-----|-----|
E|-----|-----|-----|



[Intro] (0:03 - 0:11)
                                                        
          E5 E5 E5 E5 E5 E5    E5 E5 E5 E5 E5 E5 E5 E5  
     '     '     '     '        '     '     '     '     
e|--------------------------|--------------------------|
B|---------5--------5-------|---5-----5--------5-------|
G|---------4--4--4--4--4--4-|---4--4--4--4--4--4--4--4-|
D|------------2--2-----2--2-|------2-----2--2-----2--2-|
A|--------------------------|--------------------------|
E|--------------------------|--------------------------|


                                                        
    E5 E5 E5 E5 E5 E5 E5 E5    E5 E5 E5 E5 E5 E5 E5 E5  
     '     '     '     '        '     '     '     '     
e|--------------------------|--------------------------|
B|---5-----5--------5-------|---5-----5--------5-------|
G|---4--4--4--4--4--4--4--4-|---4--4--4--4--4--4--4--4-|
D|------2-----2--2-----2--2-|------2-----2--2-----2--2-|
A|--------------------------|--------------------------|
E|--------------------------|--------------------------|


                            
    E5 E5 E5 E5             
     '     '     '     '    
e|-------------------------|
B|---5-----5---------------|
G|---4--4--4--4------------|
D|------2-----2------------|
A|-------------------------|
E|-------------------------|



Verse (0:11 - 0:38)
                                                        
                E5 E5 E5 E5    E5 E5 A5 A5 A5 A5 A5 A5  
     '     '     '     '        '     '     '     '     
e|--------------------------|--------------------------|
B|------------------5-------|---5----------------------|
G|---------------4--4--4--4-|---4--4--2--------2-------|
D|---------------2-----2--2-|------2--2--2--2--2--2--2-|
A|--------------------------|------------0--0-----0--0-|
E|--------------------------|--------------------------|


                                                        
    A5 A5 B5 B5 B5 B5 B5 B5    B5 B5 E5 E5 E5 E5 E5 E5  
     '     '     '     '        '     '     '     '     
e|--------------------------|--------------------------|
B|--------------------------|---------5--------5-------|
G|---2-----4--------4-------|---4-----4--4--4--4--4--4-|
D|---2--2--4--4--4--4--4--4-|---4--4-----2--2-----2--2-|
A|------0-----2--2-----2--2-|------2-------------------|
E|--------------------------|--------------------------|


                                                        
    E5 E5 E5 E5 E5 E5 E5 E5    E5 E5 A5 A5 A5 A5 A5 A5  
     '     '     '     '        '     '     '     '     
e|--------------------------|--------------------------|
B|---5-----5--------5-------|---5----------------------|
G|---4--4--4--4--4--4--4--4-|---4--4--2--------2-------|
D|------2-----2--2-----2--2-|------2--2--2--2--2--2--2-|
A|--------------------------|------------0--0-----0--0-|
E|--------------------------|--------------------------|


                                                        
    A5 A5 B5 B5 B5 B5 B5 B5    B5 B5 E5 E5 E5 E5 E5 E5  
     '     '     '     '        '     '     '     '     
e|--------------------------|--------------------------|
B|--------------------------|---------5--------5-------|
G|---2-----4--------4-------|---4-----4--4--4--4--4--4-|
D|---2--2--4--4--4--4--4--4-|---4--4-----2--2-----2--2-|
A|------0-----2--2-----2--2-|------2-------------------|
E|--------------------------|--------------------------|


                                                        
    E5 E5 E5 E5 E5 E5 E5 E5    E5 E5 A5 A5 A5 A5 A5 A5  
     '     '     '     '        '     '     '     '     
e|--------------------------|--------------------------|
B|---5-----5--------5-------|---5----------------------|
G|---4--4--4--4--4--4--4--4-|---4--4--2--------2-------|
D|------2-----2--2-----2--2-|------2--2--2--2--2--2--2-|
A|--------------------------|------------0--0-----0--0-|
E|--------------------------|--------------------------|


                                                        
    A5 A5 B5 B5 B5 B5 B5 B5    B5 B5 E5 E5 E5 E5 E5 E5  
     '     '     '     '        '     '     '     '     
e|--------------------------|--------------------------|
B|--------------------------|---------5--------5-------|
G|---2-----4--------4-------|---4-----4--4--4--4--4--4-|
D|---2--2--4--4--4--4--4--4-|---4--4-----2--2-----2--2-|
A|------0-----2--2-----2--2-|------2-------------------|
E|--------------------------|--------------------------|


                                                        
    E5 E5 E5 E5 E5 E5 E5 E5    E5 E5 A5 A5 A5 A5 A5 A5  
     '     '     '     '        '     '     '     '     
e|--------------------------|--------------------------|
B|---5-----5--------5-------|---5----------------------|
G|---4--4--4--4--4--4--4--4-|---4--4--2--------2-------|
D|------2-----2--2-----2--2-|------2--2--2--2--2--2--2-|
A|--------------------------|------------0--0-----0--0-|
E|--------------------------|--------------------------|


                                                        
    A5 A5 B5 B5 B5 B5 B5 B5    B5 B5 E5 E5 E5 E5 E5 E5  
     '     '     '     '        '     '     '     '     
e|--------------------------|--------------------------|
B|--------------------------|---------5--------5-------|
G|---2-----4--------4-------|---4-----4--4--4--4--4--4-|
D|---2--2--4--4--4--4--4--4-|---4--4-----2--2-----2--2-|
A|------0-----2--2-----2--2-|------2-------------------|
E|--------------------------|--------------------------|


                            
    E5 E5                   
     '     '     '     '    
e|-------------------------|
B|---5---------------------|
G|---4--4------------------|
D|------2------------------|
A|-------------------------|
E|-------------------------|



[Buildup] (0:38 - 0:52)
                                                                
          A5 A5 A5 A5 A5 A5     A5  A5 G#5 G#5 G#5 G#5 G#5 G#5  
     '     '     '     '         '       '       '       '      
e|--------------------------|----------------------------------|
B|--------------------------|----------------------------------|
G|---------2--------2-------|----2-----------------------------|
D|---------2--2--2--2--2--2-|----2---2-------------------------|
A|------------0--0-----0--0-|--------0---6---6---6---6---6---6-|
E|--------------------------|------------4---4---4---4---4---4-|


                                                                
    G#5 G#5  B5  B5  B5  B5  B5  B5    B5 B5 E5 E5 E5 E5 E5 E5  
      '       '       '       '         '     '     '     '     
e|----------------------------------|--------------------------|
B|----------------------------------|---------5--------5-------|
G|------------4-----------4---------|---4-----4--4--4--4--4--4-|
D|------------4---4---4---4---4---4-|---4--4-----2--2-----2--2-|
A|----6---6-------2---2-------2---2-|------2-------------------|
E|----4---4-------------------------|--------------------------|


                                                                
    E5 E5 A5 A5 A5 A5 A5 A5     A5  A5 G#5 G#5 G#5 G#5 G#5 G#5  
     '     '     '     '         '       '       '       '      
e|--------------------------|----------------------------------|
B|---5----------------------|----------------------------------|
G|---4--4--2--------2-------|----2-----------------------------|
D|------2--2--2--2--2--2--2-|----2---2-------------------------|
A|------------0--0-----0--0-|--------0---6---6---6---6---6---6-|
E|--------------------------|------------4---4---4---4---4---4-|


                                                               
    G#5 G#5  B5  B5  B5  B5  B5  B5    B5 B5 B5 B5 B5 B5       
      '       '       '       '         '     '     '     '    
e|----------------------------------|-------------------------|
B|----------------------------------|-------------------------|
G|------------4---------------------|------------4------------|
D|------------4---4---4---4---4---4-|---4--4--4--4--4--4------|
A|----6---6-------2---2---2---2---2-|---2--2--2-----2--2------|
E|----4---4-------------------------|-------------------------|



[Head] (0:52 - 1:17)
                                                               
                                             E5 E5    E5       
    '       '       '       '           '     '     '     '    
e|----------------------------------|-------------------------|
B|----------------------------------|------------------5------|
G|----------------------------------|---------4--4-----4------|
D|----------------------------------|------1--2--2-----2------|
A|--------------------------2-----4-|-------------------------|
E|----------------------------------|-------------------------|


                                                            
          B5 B5    B5                  A5 A5       A5       
     '     '     '     '       '     '        '     '       
e|-------------------------|-------------------------------|
B|-------------------------|-------------------------------|
G|------------------4------|------------------------2------|
D|---------4--4-----4------|------------2--2--------2------|
A|---------2--2-----2------|------------0--0--------0------|
E|-------------------------|-------------------------------|


                                                                              
       E5       E5                A5       A5               B5 B5    B5       
     '     '  '     '        '     '     '     '       '     '     '     '    
e|-----------------------|-------------------------|-------------------------|
B|-----------------------|-------------------------|-------------------------|
G|-----------------------|---------2--------2------|------------------4------|
D|------2----------------|---------2--------2------|---------4--4-----4------|
A|------2--------2-------|---------0--------0------|---------2--2-----2------|
E|------0--------0--0--2-|---4---------------------|-------------------------|


                                                                               
       E5          E5               E5                      E5                 
     '     '     '     '       '           '           '           '           
e|-------------------------|--------------------------------------------------|
B|-------------------------|--------------------------------------------------|
G|-------------------------|--------------------------------------------------|
D|------2-----------2------|---------2----------------------------------------|
A|------2-----------2------|---------2-----------------------2-----2--------4-|
E|------0-----------0------|---------0-----------------------0----------------|


                                                                                
          E5 E5    E5               B5 B5    B5               A5 A5    A5       
     '     '     '     '       '     '     '     '       '     '     '     '    
e|-------------------------|-------------------------|-------------------------|
B|------------------5------|-------------------------|-------------------------|
G|---------4--4-----4------|------------------4------|------------------2------|
D|------1--2--2-----2------|---------4--4-----4------|---------2--2-----2------|
A|-------------------------|---------2--2-----2------|---------0--0-----0------|
E|-------------------------|-------------------------|-------------------------|


                                                       
          E5       E5                A5       A5       
     '     '     '     '        '     '     '     '    
e|--------------------------|-------------------------|
B|--------------------------|-------------------------|
G|--------------------------|---------2--------2------|
D|---------2----------------|---------2--------2------|
A|---------2--------2-------|---------0--------0------|
E|---------0--------0--0--2-|---4---------------------|


                                  
          B5 B5    B5             
     '     '     '     '     '''' 
e|-------------------------|-----|
B|-------------------------|-----|
G|------------------4------|-----|
D|---------4--4-----4------|-----|
A|---------2--2-----2------|-----|
E|-------------------------|-----|



[Riff] (1:17 - 1:25)
                                                        
          E5 E5 E5 E5 E5 E5    E5 E5 E5 E5 E5 E5 E5 E5  
     '     '     '     '        '     '     '     '     
e|--------------------------|--------------------------|
B|---------5--------5-------|---5-----5--------5-------|
G|---------4--4--4--4--4--4-|---4--4--4--4--4--4--4--4-|
D|------------2--2-----2--2-|------2-----2--2-----2--2-|
A|--------------------------|--------------------------|
E|--------------------------|--------------------------|


                                                        
    E5 E5 E5 E5 E5 E5 E5 E5    E5 E5 E5 E5 E5 E5 E5 E5  
     '     '     '     '        '     '     '     '     
e|--------------------------|--------------------------|
B|---5-----5--------5-------|---5-----5--------5-------|
G|---4--4--4--4--4--4--4--4-|---4--4--4--4--4--4--4--4-|
D|------2-----2--2-----2--2-|------2-----2--2-----2--2-|
A|--------------------------|--------------------------|
E|--------------------------|--------------------------|


                            
    E5 E5 E5 E5             
     '     '     '     '    
e|-------------------------|
B|---5-----5---------------|
G|---4--4--4--4------------|
D|------2-----2------------|
A|-------------------------|
E|-------------------------|



[Verse] (1:25 - 1:53)
                                                        
                E5 E5 E5 E5    E5 E5 A5 A5 A5 A5 A5 A5  
     '     '     '     '        '     '     '     '     
e|--------------------------|--------------------------|
B|------------------5-------|---5----------------------|
G|---------------4--4--4--4-|---4--4--2--------2-------|
D|---------------2-----2--2-|------2--2--2--2--2--2--2-|
A|--------------------------|------------0--0-----0--0-|
E|--------------------------|--------------------------|


                                                        
    A5 A5 B5 B5 B5 B5 B5 B5    B5 B5 E5 E5 E5 E5 E5 E5  
     '     '     '     '        '     '     '     '     
e|--------------------------|--------------------------|
B|--------------------------|---------5--------5-------|
G|---2-----4--------4-------|---4-----4--4--4--4--4--4-|
D|---2--2--4--4--4--4--4--4-|---4--4-----2--2-----2--2-|
A|------0-----2--2-----2--2-|------2-------------------|
E|--------------------------|--------------------------|


                                                        
    E5 E5 E5 E5 E5 E5 E5 E5    E5 E5 A5 A5 A5 A5 A5 A5  
     '     '     '     '        '     '     '     '     
e|--------------------------|--------------------------|
B|---5-----5--------5-------|---5----------------------|
G|---4--4--4--4--4--4--4--4-|---4--4--2--------2-------|
D|------2-----2--2-----2--2-|------2--2--2--2--2--2--2-|
A|--------------------------|------------0--0-----0--0-|
E|--------------------------|--------------------------|


                                                        
    A5 A5 B5 B5 B5 B5 B5 B5    B5 B5 E5 E5 E5 E5 E5 E5  
     '     '     '     '        '     '     '     '     
e|--------------------------|--------------------------|
B|--------------------------|---------5--------5-------|
G|---2-----4--------4-------|---4-----4--4--4--4--4--4-|
D|---2--2--4--4--4--4--4--4-|---4--4-----2--2-----2--2-|
A|------0-----2--2-----2--2-|------2-------------------|
E|--------------------------|--------------------------|


                                                        
    E5 E5 E5 E5 E5 E5 E5 E5    E5 E5 A5 A5 A5 A5 A5 A5  
     '     '     '     '        '     '     '     '     
e|--------------------------|--------------------------|
B|---5-----5--------5-------|---5----------------------|
G|---4--4--4--4--4--4--4--4-|---4--4--2--------2-------|
D|------2-----2--2-----2--2-|------2--2--2--2--2--2--2-|
A|--------------------------|------------0--0-----0--0-|
E|--------------------------|--------------------------|


                                                        
    A5 A5 B5 B5 B5 B5 B5 B5    B5 B5 E5 E5 E5 E5 E5 E5  
     '     '     '     '        '     '     '     '     
e|--------------------------|--------------------------|
B|--------------------------|---------5--------5-------|
G|---2-----4--------4-------|---4-----4--4--4--4--4--4-|
D|---2--2--4--4--4--4--4--4-|---4--4-----2--2-----2--2-|
A|------0-----2--2-----2--2-|------2-------------------|
E|--------------------------|--------------------------|


                                                        
    E5 E5 E5 E5 E5 E5 E5 E5    E5 E5 A5 A5 A5 A5 A5 A5  
     '     '     '     '        '     '     '     '     
e|--------------------------|--------------------------|
B|---5-----5--------5-------|---5----------------------|
G|---4--4--4--4--4--4--4--4-|---4--4--2--------2-------|
D|------2-----2--2-----2--2-|------2--2--2--2--2--2--2-|
A|--------------------------|------------0--0-----0--0-|
E|--------------------------|--------------------------|


                                                        
    A5 A5 B5 B5 B5 B5 B5 B5    B5 B5 E5 E5 E5 E5 E5 E5  
     '     '     '     '        '     '     '     '     
e|--------------------------|--------------------------|
B|--------------------------|---------5--------5-------|
G|---2-----4--------4-------|---4-----4--4--4--4--4--4-|
D|---2--2--4--4--4--4--4--4-|---4--4-----2--2-----2--2-|
A|------0-----2--2-----2--2-|------2-------------------|
E|--------------------------|--------------------------|


                            
    E5 E5                   
     '     '     '     '    
e|-------------------------|
B|---5---------------------|
G|---4--4------------------|
D|------2------------------|
A|-------------------------|
E|-------------------------|



[Buildup] (1:53 - 2:07)
                                                                
          A5 A5 A5 A5 A5 A5     A5  A5 G#5 G#5 G#5 G#5 G#5 G#5  
     '     '     '     '         '       '       '       '      
e|--------------------------|----------------------------------|
B|--------------------------|----------------------------------|
G|---------2--------2-------|----2-----------------------------|
D|---------2--2--2--2--2--2-|----2---2-------------------------|
A|------------0--0-----0--0-|--------0---6---6---6---6---6---6-|
E|--------------------------|------------4---4---4---4---4---4-|


                                                                
    G#5 G#5  B5  B5  B5  B5  B5  B5    B5 B5 E5 E5 E5 E5 E5 E5  
      '       '       '       '         '     '     '     '     
e|----------------------------------|--------------------------|
B|----------------------------------|---------5--------5-------|
G|------------4-----------4---------|---4-----4--4--4--4--4--4-|
D|------------4---4---4---4---4---4-|---4--4-----2--2-----2--2-|
A|----6---6-------2---2-------2---2-|------2-------------------|
E|----4---4-------------------------|--------------------------|


                                                                
    E5 E5 A5 A5 A5 A5 A5 A5     A5  A5 G#5 G#5 G#5 G#5 G#5 G#5  
     '     '     '     '         '       '       '       '      
e|--------------------------|----------------------------------|
B|---5----------------------|----------------------------------|
G|---4--4--2--------2-------|----2-----------------------------|
D|------2--2--2--2--2--2--2-|----2---2-------------------------|
A|------------0--0-----0--0-|--------0---6---6---6---6---6---6-|
E|--------------------------|------------4---4---4---4---4---4-|


                                     
    G#5 G#5  B5  B5  B5  B5  B5  B5  
      '       '       '       '      
e|----------------------------------|
B|----------------------------------|
G|------------4---------------------|
D|------------4---4---4---4---4---4-|
A|----6---6-------2---2---2---2---2-|
E|----4---4-------------------------|


                                                     
    B5    B5    B5    B5    B5    B5                 
     '           '           '           '           
e|--------------------------------------------------|
B|--------------------------------------------------|
G|---------------------4----------------------------|
D|---4-----4-----4-----4-----4-----4----------------|
A|---2-----2-----2-----------2-----2-----2--------4-|
E|--------------------------------------------------|



[Head] (2:07 - 2:35)
                                                                                
          E5 E5    E5               B5 B5    B5               A5 A5    A5       
     '     '     '     '       '     '     '     '       '     '     '     '    
e|-------------------------|-------------------------|-------------------------|
B|------------------5------|-------------------------|-------------------------|
G|---------4--4-----4------|------------------4------|------------------2------|
D|------1--2--2-----2------|---------4--4-----4------|---------2--2-----2------|
A|-------------------------|---------2--2-----2------|---------0--0-----0------|
E|-------------------------|-------------------------|-------------------------|


                                                       
          E5       E5                A5       A5       
     '     '     '     '        '     '     '     '    
e|--------------------------|-------------------------|
B|--------------------------|-------------------------|
G|--------------------------|---------2--------2------|
D|---------2----------------|---------2--------2------|
A|---------2--------2-------|---------0--------0------|
E|---------0--------0--0--2-|---4---------------------|


                                                      
          B5 B5    B5            E5          E5       
     '     '     '     '       '     '     '     '    
e|-------------------------|-------------------------|
B|-------------------------|-------------------------|
G|------------------4------|-------------------------|
D|---------4--4-----4------|------2-----------2------|
A|---------2--2-----2------|------2-----------2------|
E|-------------------------|------0-----------0------|


                                                                               
          E5                      E5                         E5 E5    E5       
     '           '           '           '              '     '     '     '    
e|--------------------------------------------------|-------------------------|
B|--------------------------------------------------|------------------5------|
G|--------------------------------------------------|---------4--4-----4------|
D|---------2----------------------------------------|------1--2--2-----2------|
A|---------2-----------------------2-----2--------4-|-------------------------|
E|---------0-----------------------0----------------|-------------------------|


                                                      
          B5 B5    B5               A5 A5    A5       
     '     '     '     '       '     '     '     '    
e|-------------------------|-------------------------|
B|-------------------------|-------------------------|
G|------------------4------|------------------2------|
D|---------4--4-----4------|---------2--2-----2------|
A|---------2--2-----2------|---------0--0-----0------|
E|-------------------------|-------------------------|


                                                       
          E5       E5                A5       A5       
     '     '     '     '        '     '     '     '    
e|--------------------------|-------------------------|
B|--------------------------|-------------------------|
G|--------------------------|---------2--------2------|
D|---------2----------------|---------2--------2------|
A|---------2--------2-------|---------0--------0------|
E|---------0--------0--0--2-|---4---------------------|


                                                                                
          B5 B5    B5            E5          E5            E5          E5       
     '     '     '     '       '     '     '     '       '     '     '     '    
e|-------------------------|-------------------------|-------------------------|
B|-------------------------|-------------------------|-------------------------|
G|------------------4------|-------------------------|-------------------------|
D|---------4--4-----4------|------2-----------2------|------2------------------|
A|---------2--2-----2------|------2-----------2------|------2-----------2------|
E|-------------------------|------0-----------0------|------0-----------0------|



[Solo] (2:35 - 2:36)
                                                     
                                                     
     '           '           '           '           
e|--------------------------------------------------|
B|--------------------------------------------------|
G|--------------------------------------------------|
D|-----------------------------------------------11-|
A|--------------------------------------14----------|
E|--------------------------------------------------|


                                                    
                                                    
        '           '           '           '       
e|-------------------------------------------------|
B|-------------------------------------------------|
G|-------------------------------------------------|
D|--------13s14------------------------------------|
A|-------------------------------------------------|
E|-------------------------------------------------|



Solo (2:36 - 2:50)
                                                                              
                                                                              
     '     '     '     '          '           '           '           '       
e|-------------------------|-------------------------------------------------|
B|-------------------------|-------------------------------------------------|
G|-------------------------|-------------------------------------------------|
D|--------14-------14------|--------------14s13----13----------13------------|
A|-------------------------|-------------------------------------------------|
E|-------------------------|-------------------------------------------------|


                                                                            .  
                                                                               
        '           '           '           '          '     '     '     '     
e|-------------------------------------------------|--------------------------|
B|-------------------------------------------------|--------------------------|
G|-------------------------------------------------|--------------------------|
D|--------------13s11----11----------11------------|--------------------------|
A|-------------------------------------------------|--------14----------------|
E|-------------------------------------------------|------------------------9-|


        .                       .                    
                                                     
        '           '           '           '        
e|--------------------------------------------------|
B|--------------------------------------------------|
G|--------------------------------------------------|
D|--------------------------------------------------|
A|--------------------------------------------11s12-|
E|-----11----12-----------------9-----7-------------|


                                                     
                                                     
        '           '           '           '        
e|--------------------------------------------------|
B|--------------------------------------------------|
G|--------------------------------------------------|
D|--------------------------------------------------|
A|--12s14----14-------------------------------------|
E|-----------------------------------------------13-|


                                                                     
                                                                     
      '               '               '               '              
e|------------------------------------------------------------------|
B|------------------------------------------------------------------|
G|---------------------------------------------------11-h13-p11-----|
D|---------------------------------------------------------------14-|
A|------------------------------------------------------------------|
E|---12------14--------------12-------------------------------------|


                                                                     
                                                                     
      '               '               '               '              
e|------------------------------------------------------------------|
B|------------------------------------------------------------------|
G|-------11---------------------------------------------------------|
D|--p13------14-p13--11--p9--p7-------------------------------------|
A|-------------------------------11--p9--p7-------------------------|
E|-------------------------------------------11--p9--p7---5--p4--p2-|


                   
                   
     '  '     '  ' 
e|----------------|
B|----------------|
G|----------------|
D|----------------|
A|----------------|
E|--p0--4-p2-h4---|



[Head] (2:50 - 3:26)
                                                                                
          E5 E5    E5               B5 B5    B5               A5 A5    A5       
     '     '     '     '       '     '     '     '       '     '     '     '    
e|-------------------------|-------------------------|-------------------------|
B|------------------5------|-------------------------|-------------------------|
G|---------4--4-----4------|------------------4------|------------------2------|
D|---------2--2-----2------|---------4--4-----4------|---------2--2-----2------|
A|-------------------------|---------2--2-----2------|---------0--0-----0------|
E|-------------------------|-------------------------|-------------------------|


                                                       
          E5       E5                A5       A5       
     '     '     '     '        '     '     '     '    
e|--------------------------|-------------------------|
B|--------------------------|-------------------------|
G|--------------------------|---------2--------2------|
D|---------2----------------|---------2--------2------|
A|---------2--------2-------|---------0--------0------|
E|---------0--------0--0--2-|---4---------------------|


                                                      
          B5 B5    B5            E5          E5       
     '     '     '     '       '     '     '     '    
e|-------------------------|-------------------------|
B|-------------------------|-------------------------|
G|------------------4------|-------------------------|
D|---------4--4-----4------|------2-----------2------|
A|---------2--2-----2------|------2-----------2------|
E|-------------------------|------0-----------0------|


                                                                               
          E5                                                 E5 E5    E5       
     '           '           '           '              '     '     '     '    
e|--------------------------------------------------|-------------------------|
B|--------------------------------------------------|------------------5------|
G|--------------------------------------------------|---------4--4-----4------|
D|---------2----------------------------------------|------1--2--2-----2------|
A|---------2-----------------------------2--------4-|-------------------------|
E|---------0----------------------------------------|-------------------------|


                                                      
          B5 B5    B5               A5 A5    A5       
     '     '     '     '       '     '     '     '    
e|-------------------------|-------------------------|
B|-------------------------|-------------------------|
G|------------------4------|------------------2------|
D|---------4--4-----4------|---------2--2-----2------|
A|---------2--2-----2------|---------0--0-----0------|
E|-------------------------|-------------------------|


                                                       
          E5       E5                A5       A5       
     '     '     '     '        '     '     '     '    
e|--------------------------|-------------------------|
B|--------------------------|-------------------------|
G|--------------------------|---------2--------2------|
D|---------2----------------|---------2--------2------|
A|---------2--------2-------|---------0--------0------|
E|---------0--------0--0--2-|---4---------------------|


                                                      
          B5 B5    B5            E5          E5       
     '     '     '     '       '     '     '     '    
e|-------------------------|-------------------------|
B|-------------------------|-------------------------|
G|------------------4------|-------------------------|
D|---------4--4-----4------|------2-----------2------|
A|---------2--2-----2------|------2-----------2------|
E|-------------------------|------0-----------0------|


                                                     
          E5                                         
     '           '           '           '           
e|--------------------------------------------------|
B|--------------------------------------------------|
G|--------------------------------------------------|
D|---------2----------------------------------------|
A|---------2--------------------------2-----------4-|
E|---------0----------------------------------------|


                                        
          E5    E5       E5             
     '        '        '        '       
e|-------------------------------------|
B|------------------------5------------|
G|---------4-----4--------4------------|
D|------1--2-----2--------2------------|
A|-------------------------------------|
E|-------------------------------------|


                                                                   
                B5       B5             B5                         
     '              '              '              '                
e|----------------------------------------------------------------|
B|----------------------------------------------------------------|
G|---------------------------------------4------------------------|
D|---------------4--------4--------------4------------------------|
A|---------------2--------2--------------2------------------------|
E|----------------------------------------------------------------|


                                                                
                A5       A5             A5                      
     '              '              '              '             
e|-------------------------------------------------------------|
B|-------------------------------------------------------------|
G|---------------------------------------2---------------------|
D|---------------2--------2--------------2---------------------|
A|---------------0--------0--------------0---------------------|
E|-------------------------------------------------------------|


                                                     
             E5                E5                    
     '           '           '           '           
e|--------------------------------------------------|
B|--------------------------------------------------|
G|--------------------------------------------------|
D|------------2-------------------------------------|
A|------------2-----------------2-------------------|
E|------------0-----------------0-----0-----2-----4-|


                                  
          A5                      
     '     '        '     '       
e|-------------------------------|
B|-------------------------------|
G|---------2---------------------|
D|---------2---------------------|
A|---------0---------------------|
E|-------------------------------|



[Outro] (3:26 - 3:31)
                                     
                         A5          
     '        '        '        '    
e|----------------------------------|
B|----------------------------------|
G|------------------------2---------|
D|------------------------2---------|
A|------------------------0---------|
E|----------------------------------|


                                                                
                B5       B5             B5                      
     '              '              '              '             
e|-------------------------------------------------------------|
B|-------------------------------------------------------------|
G|---------------------------------------4---------------------|
D|---------------4--------4--------------4---------------------|
A|---------------2--------2--------------2---------------------|
E|-------------------------------------------------------------|


                                                                        
       E5                E5               E5                            
     '        '        '        '       '        '        '        '    
e|----------------------------------|----------------------------------|
B|----------------------------------|----------------------------------|
G|----------------------------------|----------------------------------|
D|------2-----------------2---------|------2---------------------------|
A|------2-----------------2---------|------2---------------------------|
E|------0-----------------0---------|------0---------------------------|



[Noguitar] (3:31 - 3:43)
                                            
                                            
   ''''  ''''  ''''  ''''  ''''  ''''  '''' 
e|-----|-----|-----|-----|-----|-----|-----|
B|-----|-----|-----|-----|-----|-----|-----|
G|-----|-----|-----|-----|-----|-----|-----|
D|-----|-----|-----|-----|-----|-----|-----|
A|-----|-----|-----|-----|-----|-----|-----|
E|-----|-----|-----|-----|-----|-----|-----|

**************************************

| h hammer on
| p pull off
| s slide

**************************************

            
            
Suggest correction
Creating personal tab
Creating personal tab
You can edit any tab online and save it as your Personal.

You can edit, replace or remove any tab part or add personal notes – all changes will be seen only by you.

Personal tabs can be accessed anytime from any device, even offline.
Learn more »
Give kudos to tab author, rate the tab!
1 2 3 4 5
comments
print report bad tab
guest
You may want to rate the tab now too:
select rating
Wanna post a correction for this tab? Suggest correction