Oops, an error
Loading. Please wait.

Pollito tab

version 2
version 2

Whole song

47 views 1 this week
no commentswrite comment
1 2 3 4 5
3 more votes to show rating
add to favorites
×
Save as Personal and add changes to this tab that will be seen only by you. Learn more ›
×
You can save this tab as Personal to edit and correct it or add notes. All changes will be seen only by you. Learn more »
launch autoscroll
font size
0
reset
how to read this tab
guitar tuner
backing track
0:00
0:00
edit
Autoscroll
slow
fast
+/-
esc
set tempo
stop
bueno aqui una cancion de yucatan a go go
con solo ke no habia podido encontrar aqui se los dejo
para que no batallen sacandolo de oido


INTRO
*con palm muted
e-------------------------------------------------------
B-------------------------------------------------------
G-------------------------------------------------------
D-------------------------------------------------------
A---2--4--2--4--2--4--2--4--2--4--2--4--2--4--2--4------
E-------------------------------------------------------*

e-------------------------------------------------------
B-------------------------------------------------------
G-------------------------------------------------------
D-------------------------------------------------------
A-----------4--5--4------------------4------------------
E--0--4--7-----------7--4---0--4--7-----0--0------------

e-------------------------------------------------------
B-------------------------------------------------------
G-------------------------------------------------------
D-----------4--5--4-------------------------------------
A--0--4--7-----------7--4------------4------------------
E---------------------------0--4--7-----0--0------------

e-------------------------------------------------------
B-------------------------------------------------------
G-------------------------------------------------------
D-------------------------------------------------------
A-----------4--5--4------------------4------------------
E--2--4--7-----------7--4---0--4--7-----0--0------------

Mama mama ya no me des pollito
e-------------------------------------------------------
B-------------------------------------------------------
G-------------------------------------------------------
D-------------------------------------------------------
A-----------4--5--4------------------4------------------
E--0--4--7-----------7--4---0--4--7-----0--0------------


Ya no lo necesito pues ya soy mayorcito

G-------------------------------------------------------
D-----------4--5--4-------------------------------------
A--0--4--7-----------7--4------------4------------------
E---------------------------0--4--7-----0--0------------

Mama pues que no ves acabo de cumplir diez
D-------------------------------------------------------
A-----------4--5--4------------------4------------------
E--2--4--7-----------7--4---0--4--7-----0--0------------

Mama pues que no ves necesito unos tacos de res
(se interrumpe el riff y se mete el acorde)

D-------------------------------------------------------
A-----------4--5--4-------------------------------------
E--2--4--7-----------7--4-------------------------------

  E
Mama dame chance de comer algo que empance
       A                                  E
Para crecer muy sano necesito comerme un marrano
    B                  A          E
Y mama ya no ya no ya no me des pollito
    B                  A          E
Y mama ya no ya no ya no me des pollito
    B                  A          E
Y mama ya no ya no ya no me des pollito

SOLO
e--11-12---11-12-----11-12-12-12-12---------------------
B-------------------------------------------------------
G-------------------------------------------------------(x2)

e-------15------15------15------15----------------------
B-------------------------------------------------------
G--15b^----15b^---15b^------15b^------------------------

e-------12------12------12------12----------------------
B-------------------------------------------------------
G--12b^----12b^---12b^------12b^------------------------

e--15-12------------------------------------------------
B--------15-12-10--------10---9-9--10h9-9---------------
G-----------------12-9-12-------------------------------

e-------------------------------------------------------
B-------------------------------------------------------
G--15-12-10---------------10----------10b^--------------
D-----------12-12-9--9-12-------12-12-------12----------

despues del solo(con ritmo surf)

e--12--------12------17------12-------19---17---12------
B--12--------12------17------12-------19---17---12------
G--12--------12------17------12-------19---17---12------
D-------------------------------------------------------

(un solo rasgueo por acorde)
E                     E
Unos Tacos de Bistek, De suadero y longaniza
A                      E
Unas sabrosas memelas, Hasta el cuero se me eriza
B           A              E
Pero no tu solo me das pollito
B           A              E
Pero no tu solo me das pollito
B           A              E     E    E
Pero no tu solo me das pollito

(De vuelta al rasgueo normal)

E                        E
Necesito, necesito una transfusión de bichos
A                         E
Necesito, necesito unos grasosos machitos
B           A             E
Pero no tu solo me das pollito
B           A             E
Pero no tu solo me das pollito
B           A             E
Pero no tu solo me das pollito

B                     A
Pero no no no no no no no no no no...  tu solo me das....

e----16-------15--------14-------12---------------------
B-------------------------------------------------------
G--16---16-15----15-14-----14-13------------------------

        E
pollito....


ANOTACIONES
b^--jalar la cuerda hacia a ti
h --martilleo en la cuerda que sigue

numeracion y nombres de las cuerdas
e-------------------------------------------------------1
B-------------------------------------------------------2
G-------------------------------------------------------3
D-------------------------------------------------------4
A-------------------------------------------------------5
E-------------------------------------------------------6

Gracias! espero que les haya servido

dudas,sugerencias,agradecimientos,etc

A:

adrian_leo92@

            
            
Suggest correction
Creating personal tab
Creating personal tab
You can edit any tab online and save it as your Personal.

You can edit, replace or remove any tab part or add personal notes – all changes will be seen only by you.

Personal tabs can be accessed anytime from any device, even offline.
Learn more »
Give kudos to tab author, rate the tab!
1 2 3 4 5
comments
print report bad tab
guest
Wanna post a correction for this tab? Suggest correction