Oops, an error
Loading. Please wait.

Rolling Star intro tab

version 1
version 1

Intro

Whole song

Interactive

by YUI
20,578 views 1 this week
3 commentsread comments
1 2 3 4 5
2 more votes to show rating
add to favorites
×
Save as Personal and add changes to this tab that will be seen only by you. Learn more ›
×
You can save this tab as Personal to edit and correct it or add notes. All changes will be seen only by you. Learn more »
launch autoscroll
font size
0
reset
how to read this tab
guitar tuner
backing track
0:00
0:00
edit
Autoscroll
slow
fast
+/-
esc
set tempo
stop
Author
Difficulty
e|------------0----0-------------0----0-----------0----0---------5----5------------|
B|----------3----3-------------3----3-----------3----3--------3----3---------------|
G|----4—-4--------------2--2--------------0--0-------------2-----------------------|
D|---------------------------------------------------------------------------------| 
A|---------------------------------------------------------------------------------|
E|---------------------------------------------------------------------------------|

e|------------0----0-------------0----0-----------0----0---------5----|
B|----------3----3-------------3----3-----------3----3--------3----3--|
G|----4—-4--------------2--2--------------0--0-------------2----------|  D (strum)
D|--------------------------------------------------------------------| 
A|--------------------------------------------------------------------|
E|--------------------------------------------------------------------|

            
            
Suggest correction
Creating personal tab
Creating personal tab
You can edit any tab online and save it as your Personal.

You can edit, replace or remove any tab part or add personal notes – all changes will be seen only by you.

Personal tabs can be accessed anytime from any device, even offline.
Learn more »
Give kudos to tab author, rate the tab!
1 2 3 4 5
comments
print report bad tab
3 comments total.
-1 reply
9h05tly 51 Dec 02, 2006 01:44 AM

i think its almost entirely correct but i feel that the last two should be
e|----------0---0--------5---5--------------------------------------|
B|--------2---2--------0---0----------------------------------------|
G|----2-2----------0-0----------------------------------------------|
D|------------------------------------------------------------------|
A|------------------------------------------------------------------|
E|------------------------------------------------------------------|

becus you can hear the A chord for the second last one, and i feel that it would be easier to play the 1st part by playing the B open string instead of G4. NIce job anyway =D

-1 reply
devis 70 May 11, 2007 03:31 PM

that still wrong :/

0 reply
ichigo123456 10 Jan 18, 2010 02:38 PM

that sounds about right

guest
You may want to rate the tab now too:
select rating
Wanna post a correction for this tab? Suggest correction