Oops, an error
Loading. Please wait.

Rolling Star tab

version 1
version 1

Whole song

Interactive

by YUI
31,280 views 15 this week
no commentswrite comment
1 2 3 4 5
1 last vote to show rating
add to favorites
×
Save as Personal and add changes to this tab that will be seen only by you. Learn more ›
×
You can save this tab as Personal to edit and correct it or add notes. All changes will be seen only by you. Learn more »
launch autoscroll
font size
0
reset
how to read this tab
guitar tuner
backing track
0:00
0:00
edit
Autoscroll
slow
fast
+/-
esc
set tempo
stop
Standard Tuning

Rhythm intro/chorus
e-------------------------------------|
b-------------------------------------|
g-44444444-77777777-------------------|
d-44444444-77777777-77777777-55555555-|
a-22222222-55555555-77777777-55555555-|
e-------------------55555555-33333333-|

Lead intro
e-----0---------0--------0--------5----|
B---3---3-----3---3----3---3----3---3--|
G-4---------2--------0--------4--------|
D--------------------------------------|
A--------------------------------------|
E--------------------------------------|

e-----0---------0--------0--------5---5-xx-5-xx-5-|
B---3---3-----3---3----3---3----3---3-3-xx-3-xx-3-|
G-4---------2--------0--------4-------4-xx-4-xx-4-|
D-------------------------------------------------|
A-------------------------------------------------|
E-------------------------------------------------|

Verses
Rhythm
e-------------------------------------|
b-------------------------------------|
g-77777777----------77777777----------|2x
d-77777777-55555555-77777777-55555555-|
a-55555555-55555555-55555555-55555555-|
e----------33333333----------33333333-|

Lead
e------10~--|
b-8-7-(10~)-|
g-----------|
d-----------|
a-----------|
e-----------|

Pre-Chorus (Both or Rhythm Guitar)
e----------------------|
b----------------------|
g----------------------|
d-4--4--4-5--4--4--4-5-|
a-4--4--4-5--4--4--4-5-|
e-2--2--2-3--2--2--2-3-|

Chorus
e-------------------------------------|
b-------------------------------------|
g-44444444-77777777-------------------|
d-44444444-77777777-77777777-55555555-|
a-22222222-55555555-77777777-55555555-|
e-------------------55555555-33333333-|
.
Lead guitar
e-10-9----10-9----10-9--|
b------10------10-------|
g-----------------------|
d-----------------------|
a-----------------------|
e-----------------------|

intro
verse
pre-chorus
chorus

Bridge
Rhythm
e-----------------------------------------------------------------|
b-----------------------------------------------------------------|
g-4--4~--7--7~----------------44444444-77777777-------------------|
d-4--4~--7--7~--7--7~--5--5~--44444444-77777777-77777777-55555555-|
a-2--2~--5--5~--7--7~--5--5~--22222222-55555555-77777777-55555555-|
e---------------5--5~--3--3~--------------------55555555-33333333-|

Solo
Rhythm
e-----------------------|
b-----------------------|
g-----------------------|
d-4--4-4-4--4-4--5--5-5-| 
a-4--4-4-4--4-4--5--5-5-|
e-2--2-2-2--2-2--3--3-3-|

e---------------------------------------------------------
b---------------------------------------------------------
g-9-9-9-9-9/11-11-11--7--7-7--7-7-6-6-6-6-4/6-4/6--7--7-7-
d-x-x-x-x-x/-x--x--x--x--x-x--x-x-x-x-x-x-x/x-x/x--x--x-x-
a-7-7-7-7-7/-9--9--9--5--5-5--5-5-4-4-4-4-2/4-2-4--5--5-5-
e---------------------------------------------------------

e-----------------------------------------------x--x-x-x-|
b-----------------------------------------------x--x-x-x-|
g-141414-14/1212-12/1111-11/9/7-77-7/66-6/4/2~--x--x-x-x-|
d--x-x-x--x/-x-x--x/-x-x--x/x/x-xx-x/xx-x/x/x~--x--x-x-x-|
a-121212-12/1010-10/-9-9--9/7/5-55-5/44-4/2/0~--x--x-x-x-|
e-----------------------------------------------x--x-x-x-|


Lead
e-----------------------|
b-----------------------|
g-----------------------|
d-4--4-4-4--4-4--5--5-5-| 
a-4--4-4-4--4-4--5--5-5-|
e-2--2-2-2--2-2--3--3-3-|

e-101010-10/7-777---------------------------------|
b-101010-10/7-777-777-7brbrbr~----------------8-7-|
g-----------------666-----------------------7-----|
d-------------------------------7brbrbr~--9-------|
a-------------------------------------------------|
e-------------------------------------------------|
solo continued
e-9/1010-9/10101010-9/10101010-9/10101010-15-14-----------------------------|
B-9/1010-9/10101010-9/10101010-9/10101010-------15--------------------------|
G------------------------------------------------------------12~--14brbr~---|
D---------------------------------------------------12b~-14~----------------|
A---------------------------------------------------------------------------|
E---------------------------------------------------------------------------|

post bridge
rhythm
e-------------------------------------|
b-------------------------------------|
g----------55555555----------77777777-|
d-22222222-55555555-55555555-77777777-| 3x
a-22222222-33333333-55555555-55555555-|
e-00000000----------33333333----------|

e-----------------------------------------|
b-----------------------------------------|
g-55555555--------------------------------|
d-55555555-55555555-7777777777777777-9-99-|
a-33333333-55555555-7777777777777777-9-99-|
e----------33333333-5555555555555555-7-77-|

lead
e--------------------------------------|
b--8-7-8---8-7-8---8-7-8-10-8-7-8-7-8--|
g-7------7-------7---------------------| 4x
d--------------------------------------|
a--------------------------------------|
e--------------------------------------|

chorus
post chorus
intro

            
            
Suggest correction
Creating personal tab
Creating personal tab
You can edit any tab online and save it as your Personal.

You can edit, replace or remove any tab part or add personal notes – all changes will be seen only by you.

Personal tabs can be accessed anytime from any device, even offline.
Learn more »
Give kudos to tab author, rate the tab!
1 2 3 4 5
comments
print report bad tab
guest
You may want to rate the tab now too:
select rating
Wanna post a correction for this tab? Suggest correction