Oops, an error
Loading. Please wait.

Lacie tab

version 1
version 1

Whole song

  • This is the piano version's of Lacie's original po... Show more

Interactive

8,874 views 3 this week
3 commentsread comments
1 2 3 4 5
1 last vote to show rating
add to favorites
×
Save as Personal and add changes to this tab that will be seen only by you. Learn more ›
×
You can save this tab as Personal to edit and correct it or add notes. All changes will be seen only by you. Learn more »
launch autoscroll
font size
0
reset
how to read this tab
guitar tuner
edit
Autoscroll
slow
fast
+/-
esc
set tempo
stop
Author
Difficulty
Song: Lacie 
Composed by: Yuki Kajiura
Tabbed by: kenor 
Re-Arranged by: Arvin

Rhytm: 3/4 metrum
Tab is written an octave lower than the original song.
     
E||--------------------|----------------|------------------|-------------|
B||--6-p-5-----5--6-h-8|--5--5----------|--3-h-5-p-3-------|-------------|
G||--7-----7-----------|--5---------5---|--3----------5----|--5----------|
D||--7-----------------|----------------|------------------|--7-------7--|
A||--------------------|----------------|------------------|-------------|
E||--------------------|----------------|------------------|-------------|

E||--------------------|-----------------|-------1----3---|--5---------3-|
B||--6-p-5-----5--6-h-8|--5--5-----------|--3---------5---|--6---------5-|
G||--7-----7-----------|--5---------5----|--3-------------|-------5------|
D||--------------------|-----------------|----------------|--------------|
A||--------------------|-----------------|----------------|--------------|
E||--------------------|-----------------|----------------|--------------|

E||--------------------|-----------------|------------------|------------|
B||--6-p-5-----5--6-h-8|---5--5----------|--3-h-5-p-3-------|------------|
G||--7-----7-----------|--5---------5----|--3----------5----|--5-------5-|
D||--------------------|-----------------|------------------|--7---------|
A||--------------------|-----------------|------------------|------------|
E||--------------------|-----------------|------------------|------------|
     
E||-----------------|-----------------|-----------------|-------|
B||--3----5----6----|--5--------------|--3--------------|-------|
G||--3---------3----|--5---------5----|--0----2---------|-------|
D||-----------------|-------5---------|------------2----|---3---|
A||-----------------|-----------------|-----------------|---5---|
E||-----------------|-----------------|-----------------|-------|
     
E||--------------------|----------------|------------------|-------------|
B||--4-p-3----3--4-h-6-|---3--3---------|--1-h-3-p-1-------|-------------|
G||--5-----5-----------|---3-------3----|--1----------3----|--3-------3--|
D||--5-----------------|----------------|------------------|-------------|
A||--------------------|----------------|------------------|--6----------|
E||--------------------|----------------|------------------|-------------|
     
E||--------------------|----------------|-----------------|--------------|
B||--4-p-3----3--4-h-6-|---3--3---------|-------4----6----|--8---------6-|
G||--5-----5-----------|---3-------3----|--5---------7----|--8---------7-|
D||--5-----------------|----------------|--6--------------|-------8------|
A||--------------------|----------------|-----------------|--------------|
E||--------------------|----------------|-----------------|--------------|
     
E||--------------------|----------------|------------------|-------------|
B||--4-p-3----3--4-h-6-|---3--3---------|--1-h-3-p-1-------|-------------|
G||--5-----5-----------|---3-------3----|--1----------3----|--3-------3--|
D||--5-----------------|----------------|------------------|-------------|
A||--------------------|----------------|------------------|--6----------|
E||--------------------|----------------|------------------|-------------|

E||------------------|------------------|-----------------|-------|
B||--1--3--4----6----|--3--4--3---------|-----------------|-------|
G||------------------|-------------3----|--5--------------|-------|
D||--3---------------|--5---------------|--3----5----0----|---1---|
A||------------------|------------------|-----------------|---3---|
E||------------------|------------------|-----------------|-------|

E||--4-p-3-------4---|--3-------------|------------------|--------------|
B||--------6---------|-------4--------|--6-p-4-------6---|--4-----------|
G||------------------|----------------|--------6---------|-------5------|
D||--3---------------|----------------|------------------|--------------|
A||------------------|--6-------------|--4---------------|--------------|
E||------------------|----------------|------------------|--4-----------|

E||------------------|-----------------|-----------------|------------3-|
B||--2-p-1-------2---|--4--------------|-----------------|-------5------|
G||--------3---------|-------6----3----|--5--------5--6--|--5-----------|
D||------------------|--5--------------|-----------------|--------------|
A||--1---------------|-----------------|-----------------|--3-----------|
E||------------------|-----------------|--4--------------|--------------|

E||--4-p-3-------4---|--6--------------|-----------------|--------------|
B||--------6---------|-------8---------|--6-p-4----------|--4-----------|
G||------------------|------------8----|------------6----|-----------5--|
D||--3---------------|-----------------|-----------------|--------------|
A||------------------|--6--------------|--4--------------|--------------|
E||------------------|-----------------|-----------------|--4-----------|

E||------------------|-----------------|-----------------||
B||--3----3--5--6----|--6----5----3----|---5---6-----5---||
G||------------------|--4--------------|-------------4---||
D||------------------|-----------------|-----------------||
A||------------------|-----------------|---3-------------||
E||--3---------------|-----------------|-----------------||

E||--------------------|-----------------|------------------|------------|
B||--6-p-5-----5--6-h-8|--5--5-----------|--3-h-5-p-3-------|------------|
G||--7-----7-----------|--5---------5----|--3----------5----|--5-------5-|
D||--7-----------------|-----------------|------------------|--7---------|
A||--------------------|-----------------|------------------|------------|
E||--------------------|-----------------|------------------|------------|

E||--------------------|----------------|-------1----3----|--5---------3-|
B||--6-p-5-----5--6-h-8|--5--5----------|--3---------5----|--6---------5-|
G||--7-----7-----------|--5---------5---|--3--------------|-------5------|
D||--------------------|----------------|-----------------|--------------|
A||--------------------|----------------|-----------------|--------------|
E||--------------------|----------------|-----------------|--------------|

E||--------------------|----------------|------------------|-------------|
B||--6-p-5-----5--6-h-8|--5--5----------|--3-h-5-p-3-------|-------------|
G||--7-----7-----------|--5---------5---|--3----------5----|--5-------5--|
D||--7-----------------|----------------|------------------|--7----------|
A||--------------------|----------------|------------------|-------------|
E||--------------------|----------------|------------------|-------------|

E||-----------------|----------------|-----------------|-------||
B||--3----5----6----|--5-------------|--3--------------|-------||
G||--3---------3----|--5---------5---|--0----2---------|-------|| END
D||-----------------|-------5--------|------------2----|---3---||
A||-----------------|----------------|-----------------|-------||
E||-----------------|----------------|-----------------|-------||

Legend:
-p- Pull
-h- Hammer

http://www.fictionjunction.com/index2.html

            
            
Suggest correction
Creating personal tab
Creating personal tab
You can edit any tab online and save it as your Personal.

You can edit, replace or remove any tab part or add personal notes – all changes will be seen only by you.

Personal tabs can be accessed anytime from any device, even offline.
Learn more »
Give kudos to tab author, rate the tab!
1 2 3 4 5
comments
print report bad tab
3 comments total.
0 reply
arvinguinto 139 Feb 18, 2010 02:55 AM, edited on October 5 2014, 07:12 pm

hmm =(

0 reply
arvinguinto 139 Mar 06, 2010 03:35 PM, edited on October 5 2014, 07:12 pm

=)

+1 reply
arigato0 10 Sep 03, 2014 08:06 PM

Estan buenas las tabs

guest
You may want to rate the tab now too:
select rating
Wanna post a correction for this tab? Suggest correction