Oops, an error
Loading. Please wait.

Yoshi City tab

6,537 views 30 this week
5 commentsread comments
1 2 3 4 5
x 14
add to favorites
×
Save as Personal and add changes to this tab that will be seen only by you. Learn more ›
×
You can save this tab as Personal to edit and correct it or add notes. All changes will be seen only by you. Learn more »
launch autoscroll
font size
0
reset
how to read this tab
guitar tuner
edit
Autoscroll
slow
fast
+/-
esc
set tempo
stop
Plays this throughout.

e|-----------------------------------|
b|-----------------------------------|
G|-----------------------------------|
D|-----6-4-3----3-4----6---4-3-------|
A|---4--------4-----6----4-----6-4-6-|
E|-6---------------------------------|

e|---------------------------------|
b|---------------------------------|
G|---------------------------------|
D|---------3---4-6-4---3-----3-4---|
A|-----4-6---6-------6---6-4-----4-|
E|-6-6-----------------------------|

            
            
Suggest correction
Creating personal tab
Creating personal tab
You can edit any tab online and save it as your Personal.

You can edit, replace or remove any tab part or add personal notes – all changes will be seen only by you.

Personal tabs can be accessed anytime from any device, even offline.
Learn more »
comments
print report bad tab
5 comments total. Showing first comments.
+1 reply
2424yes 10 Nov 12, 2014 03:49 PM

icedout zona 2001

0 reply
mochizuki.charl 10 Jan 22, 2015 03:44 PM

thanks for the tab! would you happen to know the chord progression for this song? am thinking of doing a guitar cover and i'd like to incorporate some chords to play over the tune that you've tabbed. Cheers

0 reply
blackxfuture 6,934 Feb 26, 2015 05:09 AM

Sorry man, I don't :(

guest
You may want to rate the tab now too:
select rating
Wanna post a correction for this tab? Suggest correction