Oops, an error
Loading. Please wait.

A Quien tab

by Yuri
11 views 1 this week
no commentswrite comment
1 2 3 4 5
3 more votes to show rating
add to favorites
×
Save as Personal and add changes to this tab that will be seen only by you. Learn more ›
×
You can save this tab as Personal to edit and correct it or add notes. All changes will be seen only by you. Learn more »
launch autoscroll
font size
0
reset
how to read this tab
guitar tuner
edit
Autoscroll
slow
fast
+/-
esc
set tempo
stop
E--------4---------2---------0----------------------------0------------
A--0-------------------------------------------------------------------
D---------2---2-----2---2-----2-----0----------------------------------
G--2-------2-2-------2-2-------1-----2-------------2---2-----0-2-------
B--2--------2---------2--------0------3-----3-----3-3-3----------2-----
e---------------------------------------2-2---2_0----0-----------0-----


   ¿A quien tratas de engañas amor?, por favor...
E-------------------4-----------2---------0-----------------------------
A------0------------------------------------2---------------------------
D--------2------------2-----------2-------------------------------------
G---------2---2---------2---2-------2---2--------1----------------------
B-----------2-------------2-----------2--------0------------------------
e-----------------------------------------------------------------------

  ya sé que este es el final... muy bien,
E-----------------------------------0-----------------------------------
A----------------------2------------------------------------------------
D----0-------4----------------------------------------------------------
G------2--------2---------2-----------1---------------------------------
B---------3----------3---------3--------0-------------------------------
e-------2---------2----------2----------0-------------------------------
  A quien le importa donde ir esta vez...
E---------------4----------2--------0-----------------------------------
A----0---------------------------------2--------------------------------
D-------2----------2----------2-----------------------------------------
G----------2-----------2---------2---------1----------------------------
B----------2-----------2---------2-------0------------------------------
e-----------------------------------------------------------------------

  total aqui o allá será igual el adiós, el adiós...
E------------------------------------0----------------------------------
A-----------------------------------------------------------------------
D--0-----4-----------------2-------------------0------------------------
G----2------2----------------2---------1-------2--------2---------------
B------3-------3----------------3--------0-----3-----3--3---------------
e------2-------2----------------2--------0-----2--2-----0---------------


           A             F#m         Bm7       D          E   Esus4
   Perdóname si al escucharte dirigiré a otra parte la mirada,
 E7   A     A/F#     F#m         Bm7              D             E    Esus4  E7
Háblame sin tantas vueltas, no utilices nuestras fallas como excusas...


         A                    F#m          F#m-E
   ¿A quien crees tú que dolerá, este fin?,
    D               D/C#          Bm7              E
¿a ti? que alguien más te espera ya... después de mi...
      A                   F#m     F#m-E      D
¿a quien le contaras que yo llore...... por ti?,
           D/C#         Bm7       E   Esus4  E7
que ahora solo quieres mi... amistad...


           A                F#m F#m/E       Bm7            D               E  Esus4
   Perdóname me es tan difícil,      no me pidas que te entienda, no, no puedo,


E7      A                 F#m             Bm7            D           E     Esus4 E7
discúlpame... pero es tan fácil, perderlo todo cuando la vida apenas empieza...


         A                    F#m          F#m-E
   ¿A quien crees tú que dolerá, este fin?,
    D               D/C#          Bm7              E
¿a ti? que alguien más te espera ya... después de mi...
      A                   F#m     F#m-E      D
¿a quien le contaras que yo llore...... por ti?,
           D/C#         Bm7       F#m  F#m-E-D  E
que ahora solo quieres mi... amistad...


         A                    F#m          F#m-E
   ¿A quien crees tú que dolerá, este fin?,
    D               D/C#          Bm7              E
¿a ti? que alguien más te espera ya... después de mi...
      A                   F#m     F#m-E      D
¿a quien le contaras que yo llore...... por ti?,
           D/C#         Bm7       E   Esus4  E7       A
que ahora solo quieres mi... amistad...          ¿A quien?.

            
            
Suggest correction
Creating personal tab
Creating personal tab
You can edit any tab online and save it as your Personal.

You can edit, replace or remove any tab part or add personal notes – all changes will be seen only by you.

Personal tabs can be accessed anytime from any device, even offline.
Learn more »
Give kudos to tab author, rate the tab!
1 2 3 4 5
comments
print report bad tab
guest
Wanna post a correction for this tab? Suggest correction