Oops, an error
Loading. Please wait.
We have an official Chicken Fried tab made by UG professional guitarists. Check out the tab »
×
37,208 views 99 this week
no commentswrite comment
1 2 3 4 5
x 22
add to favorites
×
Save as Personal and add changes to this tab that will be seen only by you. Learn more ›
×
You can save this tab as Personal to edit and correct it or add notes. All changes will be seen only by you. Learn more »
launch autoscroll
font size
0
reset
how to read this tab
guitar tuner
edit
Autoscroll
slow
fast
+/-
esc
set tempo
stop
I had a go at transcribing a tab for
the intro from a few videos I found on youtube, and I think it sounds relatively 
accurate, though probably not a carbon copy of the way Zac plays it.


e|---------------------------------3------------------------------------------|
B|-s3--3--1----0-------------0-----------0h1--1s3--3-----3p0----------------3-|
G|-s4--4--2p0-----0----------------------0h2--2s4-----4----------2-----0h2----|
D|--------0----------2p0-----------------0---------0----------0---------------|
A|----------------------------------------------------------------------------|
E|-s3--3-------3----------3-----3-----3------------------3----------2---------|

e|----------------------------------------------------------------------------------------------|
B|-------3-----1p0-----1-----0-----------------------3-----1p0-----0----------------------------|
G|----0----------------------------0-----0-----0----------------0--------0-----0-----0-----0----|
D|----------0-------0-----------------2-----------2--------2----------------------------------0-|
A|------------------------3-----3-----------3-----------3-------------------0-----2-----3-------|
E|-3------------------------------------------------------------------3-------------------------|

It's hard to transcribe every note, and there may well be a few filler notes missing
here and there. Hopefully this is a decent skeleton to at least learn the main notes, and
then strengthen from there. Comments welcome.

Tune down half a step from standard to play along with the song.



************************************

| h  Hammer-on
| p  Pull-off 

************************************

            
            
Suggest correction
Creating personal tab
Creating personal tab
You can edit any tab online and save it as your Personal.

You can edit, replace or remove any tab part or add personal notes – all changes will be seen only by you.

Personal tabs can be accessed anytime from any device, even offline.
Learn more »
comments
print report bad tab
guest
You may want to rate the tab now too:
select rating
Wanna post a correction for this tab? Suggest correction