Oops, an error
Loading. Please wait.

My Old Man chords

version 2
version 2

Whole song

  • In the intro when he picks the low F he uses his t... Show more
  • Full and detailed fingerstyle parts with RH fingering guide.

Interactive

9,082 views 84 this week
1 commentread comment
1 2 3 4 5
x 17
add to favorites
×
Save as Personal and add changes to this tab that will be seen only by you. Learn more ›
×
You can save this tab as Personal to edit and correct it or add notes. All changes will be seen only by you. Learn more »
launch autoscroll
font size
0
reset
transpose
0
reset
simplify chords
display chords
guitar tuner
edit
Autoscroll
slow
fast
+/-
esc
set tempo
stop
About this tab version
In the intro when he picks the low F he uses his thumb. When there's a C with an asterisk you just play the intro. You can also give some extra flavour by using C2 and Fmaj7 as quick chords where specified. Was this info helpful? Yes No
Strumming
There is no strumming pattern for this song yet. and get +5 IQ
[Intro]
    C                      Am/F#                    F                        G
e|-3p0-----------0------|--3p0-----------0------|--3p0------------0-------|--------------------|
B|-1-----3p1---3-----1--|--------3p1---3-----1--|---------3p1---3-----1---|--0-------1----3----|
G|-------0---------0----|------------------0----|-------------------2-----|--0---0--------0----|
D|----------------------|-----------------------|-------------------------|-----0------0-------|
A|-3---3------3-3-3-3---|-----------------------|-------------------------|--------------------|
E|----------------------|--0---0------0-0-0-0---|--1----1------1-1-1------|--3-----3------3----|
    
[Verse]
          C (C2)
He was a giant
   F              G
And I was just a kid
              C   (C2)
I was always trying
      F            G
To do everything he did
  Am                       C         F
I can still remember every lesson he taught me
   Fm                     G 
Growing up learning how to be 
             C*
like my old man

[Instrumental]
    C                      Am/F#                    F                        G
e|-3p0-----------0------|--3p0-----------0------|--3p0------------0-------|--------------------|
B|-1-----3p1---3-----1--|--------3p1---3-----1--|---------3p1---3-----1---|--0-------1----3----|
G|-------0---------0----|------------------0----|-------------------2-----|--0---0--------0----|
D|----------------------|-----------------------|-------------------------|-----0------0-------|
A|-3---3------3-3-3-3---|-----------------------|-------------------------|--------------------|
E|----------------------|--0---0------0-0-0-0---|--1----1------1-1-1------|--3-----3------3----|
  
[Verse]
      C   (C2)
He was a lion
     F              G
We were our father's pride
          C    (C2)
But I was defiant
    F                 G
When he made me walk the line
Am
He knew how to lift me up
     C            F
And when to let me fall
  Fm                         G
Looking back, he always had a plan
        C
My old man
 
[Chorus]
     F  (Fmaj7)
My old man
           Fm             C
Feel the callus on his hands
        G
And dusty overalls
      F  (Fmaj7)
My old man
        Fm          C
Now I finally understand
         G
I have a lot to learn
             C*
From my old man

[Instrumental]
    C                      Am/F#                    F                        G
e|-3p0-----------0------|--3p0-----------0------|--3p0------------0-------|--------------------|
B|-1-----3p1---3-----1--|--------3p1---3-----1--|---------3p1---3-----1---|--0-------1----3----|
G|-------0---------0----|------------------0----|-------------------2-----|--0---0--------0----|
D|----------------------|-----------------------|-------------------------|-----0------0-------|
A|-3---3------3-3-3-3---|-----------------------|-------------------------|--------------------|
E|----------------------|--0---0------0-0-0-0---|--1----1------1-1-1------|--3-----3------3----|
 
[Verse]
         C   (C2)
Now I'm a giant
     F          G
Got a son of my own
          C   (C2)
He's always trying
     F            G
To go everywhere I go
Am                            C       F
Do the best I can to raise him up the right way
Fm                            G
Hoping that he someday wants to be
             C
Like his old man
  
[Chorus]
      F  (Fmaj7)
My old man
              Fm           C
I know one day we'll meet again
       G
As he's looking down
      F  (Fmaj7)
My old man
            Fm            C
I hope he's proud of who I am
              G
I'm trying to fill the boot 
     C
of my old man

My old man 

            
            
Suggest correction
Creating personal tab
Creating personal tab
You can edit any tab online and save it as your Personal.

You can edit, replace or remove any tab part or add personal notes – all changes will be seen only by you.

Personal tabs can be accessed anytime from any device, even offline.
Learn more »
comments
print report bad tab
1 comment total.
0 reply
willmcnally 165 May 06, 2017 03:50 AM

if you want the actual bridge tab see my intro tab

guest
You may want to rate the tab now too:
select rating
Wanna post a correction for this tab? Suggest correction