Oops, an error
Loading. Please wait.

Machine Gun Man tab

version 4
version 4

Whole song

Interactive

21,534 views 21 this week
1 commentread comment
1 2 3 4 5
x 8
add to favorites
×
Save as Personal and add changes to this tab that will be seen only by you. Learn more ›
×
You can save this tab as Personal to edit and correct it or add notes. All changes will be seen only by you. Learn more »
launch autoscroll
font size
0
reset
how to read this tab
guitar tuner
edit
Autoscroll
slow
fast
+/-
esc
set tempo
stop
Author
[Intro] (x2)
e|-----------------------------------------------------|
B|--------------------12-10----------------------------|
G|------------9h11/13-13-11---7--7--7--7---------------|
D|-------9h11-----------------7--7--7--7---------------|
A|-9h11--0--------------------9--9--7--7--7h9p7--------|
E|-0-------------------------10-10--9--9-------9p7-----|

e|----------------------------------0----0----0----0---|
B|----------------------------------0----0----0----0---|
G|--7--7--7--7----------------------1----0h1--0h1--1---|
D|--7--7--7--7-----------7/9---7--0-2----2----2----2---|
A|--9--9--7--7--7h9p7----9/11--9--0-2----2----2----2---|
E|-10-10--9--9-------9p7------------0----0----0----0---|

[Verse 1, 2]
e|-----------------------------------------------------|
B|--------------------12-10----------------------------|
G|------------9h11/13-13-11---7--7--7--7---------------|
D|-------9h11-----------------7--7--7--7---------------|
A|-9h11--0--------------------9--9--7--7--7h9p7--------|
E|-0-------------------------10-10--9--9-------9p7-----|

e|----------------------------------0----0----0----0---|
B|----------------------------------0----0----0----0---|
G|--7--7--7--7----------------------1----0h1--0h1--1---|
D|--7--7--7--7-----------7/9---7--0-2----2----2----2---|
A|--9--9--7--7--7h9p7----9/11--9--0-2----2----2----2---|
E|-10-10--9--9-------9p7------------0----0----0----0---|

[Pre-Chorus]
e|-----------------------------------------------------|
B|-----------------------------------------------------|
G|---2------------2----------------2----------------2--|
D|---2------------2----------------2----------------2--|
A|---0------------0----------------0----------------0--|
E|----------------4----------------3----------------2--|
It's a shame,it's a shame,trigger be his only friend.

e|-----------------------------------------------------|
B|-----------------------------------------------------|
G|---2------------2----------------4----------------7--|
D|---2------------2----------------4----------------7--|
A|---0------------0----------------2----------------5--|
E|----------------4------------------------------------|
It's a shame, oh yeah! But it ain't no mama, ain't gonna end

[Chorus]
e|-----------------------------------------------------|
B|-----------------------------------------------------|
G|---7--7-----------------------------2--2--2--2--2----|
D|---7--7-----------------------------2--2--2--2--2----|
A|---5--5--------------2---4---2------0--0--0--0--0----|
E|---------------------0---0---0-----------------------|
That's right, he's a pocket full of hate,

e|----------------------------------|
B|----------------------------------|
G|-----------------2--2--2--2--2----|
D|-----------------2--2--2--2--2----|
A|--2---4---2------0--0--0--0--0----|
E|--0---0---0-----------------------|
That don't give a damn.

e|-----------------------------------------------|
B|-----------------------------------------------|
G|------------------4---------7-----7-----7------|
D|------------------4---------7-----7-----7------|
A|---2---4---2------2---------5-----5-----5------|
E|---0---0---0-----------------------------------|
What fate awaitsthe machine gun man?

e|--------------------------------------------------------------|
B|--------------------------------------------------------------|
G|---------------2--2--2--2--2------------------2--2--2--2--2---|
D|---------------2--2--2--2--2------------------2--2--2--2--2---|
A|--2---4---2----0--0--0--0--0-----2---4---2----0--0--0--0--0---|
E|--0---0---0----------------------0---0---0--------------------|
 Well he ain't got no future, child. And he ain't got no plan. Lord!

e|-------------------------------------------|
B|-------------------------------------------|
G|---------------4----------7----------7-----|
D|---------------4----------7----------7-----|
A|--2---4---2----2----------5----------5-----|
E|--0---0---0--------------------------------|
 What fate awaits the machine gun man? Step aside, child.

[Interlude]
e|-----------------------------------------------------|
B|--------------------12-10----------------------------|
G|------------9h11/13-13-11---7--7--7--7---------------|
D|-------9h11-----------------7--7--7--7---------------|
A|-9h11--0--------------------9--9--7--7--7h9p7--------|
E|-0-------------------------10-10--9--9--------9p7----|

e|----------------------------------0----0----0----0---|
B|----------------------------------0----0----0----0---|
G|--7--7--7--7----------------------1----0h1--0h1--1---|
D|--7--7--7--7-----------7/9---7--0-2----2----2----2---|
A|--9--9--7--7--7h9p7----9/11--9--0-2----2----2----2---|
E|-10-10--9--9-------9p7------------0----0----0----0---|

[Verse 3] 
e|-----------------------------------------------------|
B|--------------------12-10----------------------------|
G|------------9h11/13-13-11---7--7--7--7---------------|
D|-------9h11-----------------7--7--7--7---------------|
A|-9h11--0--------------------9--9--7--7--7h9p7--------|
E|-0-------------------------10-10--9--9-------9p7-----|

e|----------------------------------0----0----0----0---|
B|----------------------------------0----0----0----0---|
G|--7--7--7--7----------------------1----0h1--0h1--1---|
D|--7--7--7--7-----------7/9---7--0-2----2----2----2---|
A|--9--9--7--7--7h9p7----9/11--9--0-2----2----2----2---|
E|-10-10--9--9-------9p7------------0----0----0----0---|

[Chorus]
e|-----------------------------------------------------|
B|-----------------------------------------------------|
G|---7--7-----------------------------2--2--2--2--2----|
D|---7--7-----------------------------2--2--2--2--2----|
A|---5--5--------------2---4---2------0--0--0--0--0----|
E|---------------------0---0---0-----------------------|
That's right, he's a pocket full of hate,

e|----------------------------------|
B|----------------------------------|
G|-----------------2--2--2--2--2----|
D|-----------------2--2--2--2--2----|
A|--2---4---2------0--0--0--0--0----|
E|--0---0---0-----------------------|
That don't give a damn.

e|-----------------------------------------------|
B|-----------------------------------------------|
G|------------------4---------7-----7-----7------|
D|------------------4---------7-----7-----7------|
A|---2---4---2------2---------5-----5-----5------|
E|---0---0---0-----------------------------------|
What fate awaitsthe machine gun man?

e|--------------------------------------------------------------|
B|--------------------------------------------------------------|
G|---------------2--2--2--2--2------------------2--2--2--2--2---|
D|---------------2--2--2--2--2------------------2--2--2--2--2---|
A|--2---4---2----0--0--0--0--0-----2---4---2----0--0--0--0--0---|
E|--0---0---0----------------------0---0---0--------------------|
 Well he ain't got no future, child. And he ain't got no plan. Lord!

e|-------------------------------------------|
B|-------------------------------------------|
G|---------------4----------7----------7-----|
D|---------------4----------7----------7-----|
A|--2---4---2----2----------5----------5-----|
E|--0---0---0--------------------------------|
 What fate awaits the machine gun man? Step aside, child.

[Interlude]
e|-----------------------------------------------------|
B|--------------------12-10----------------------------|
G|------------9h11/13-13-11---7--7--7--7---------------|
D|-------9h11-----------------7--7--7--7---------------|
A|-9h11--0--------------------9--9--7--7--7h9p7--------|
E|-0-------------------------10-10--9--9--------9p7----|

e|----------------------------------0----0----0----0---|
B|----------------------------------0----0----0----0---|
G|--7--7--7--7----------------------1----0h1--0h1--1---|
D|--7--7--7--7-----------7/9---7--0-2----2----2----2---|
A|--9--9--7--7--7h9p7----9/11--9--0-2----2----2----2---|
E|-10-10--9--9-------9p7------------0----0----0----0---|

[Bridge]
e|------------------------------------------------------------|
B|------------------------------------------------------------|
G|---4----4----4----4----------------2---2-------------0h1--1-|
D|---4----4----4----4----------------2---2-------------2----2-| 
A|---2----2----2----2----------------0---0-------------2----2-| 
E|------------------------------------------------------------|
He keeps a-shootin', oh mama, Like any ol' fool would do

e|------------------------------------------------------------|
B|------------------------------------------------------------|
G|---4----4----4----4----------------2---2-------------0h1--1-|
D|---4----4----4----4----------------2---2-------------2----2-|
A|---2----2----2----2----------------0---0-------------2----2-|
E|------------------------------------------------------------|
Lord, the life he been leadin' ain't the only one he had to choose

e|------------------------------------------------------------|
B|------------------------------------------------------------|
G|---4----4----4----4----------------2---2-------------0h1--1-|
D|---4----4----4----4----------------2---2-------------2----2-|
A|---2----2----2----2----------------0---0-------------2----2-|
E|------------------------------------------------------------|
 As he walks on out the door, mama breaks down to cry

e|-------------------------------------------------------------|
B|------------------------------------------------------2------|
G|---4----4------------2---2-------1---1------2---2-----0------|
D|---4----4------------2---2-------2---2------2---2-----2------|
A|---2----2------------0---0-------2---2------0---0-----0------|
E|-------------------------------------------------------------|
Lord, as she waves, the machine gun man, goodbye, goodbye. Oh, goodbye, son!

[Solo] (x2)
e|---------------------------0------0------0----------|
B|---------------------------1/5----5------5\---------|
G|------------------2--------0------0------0----------|
D|------------------2--------3/7----7------7\---------|
A|----2---4---2-----0---------------------------------|
E|----0---0---0---------------------------------------|

e|--------------------------------|
B|--------------------------------|
G|------------------4--------7----|
D|------------------4--------7----|
A|----2---4---2-----2--------5----|
E|----0---0---0----------2h4------|

  "OH YEAH NOW!!!"
e|-----------------------9---9/11---11---11\9-----9----|
B|---9------9------9----10--10/12---12---12\10---10----|
G|---9------9------9----11--11/13---13---13\11---11----|
D|---9------9h11---9-----------------------------------|
A|---9h11---9------9-----------------------------------|
E|---0------0------------------------------------------|

e|---9------9------9-----------------------------------|
B|---9------9------9-----------------------------------|
G|---9------9------9----4---------7--------------------|
D|---9------9h11---9----4---------7--------------------|
A|---9h11---9------9----2---------5--------------------|
E|---0------0-----------------2h4----------------------|

[Pre-Chorus]
e|-----------------------------------------------------|
B|-----------------------------------------------------|
G|---2------------2----------------2----------------2--|
D|---2------------2----------------2----------------2--|
A|---0------------0----------------0----------------0--|
E|----------------4----------------3----------------2--|
It's a shame,it's a shame,trigger be his only friend.

e|-----------------------------------------------------|
B|-----------------------------------------------------|
G|---2------------2----------------4----------------7--|
D|---2------------2----------------4----------------7--|
A|---0------------0----------------2----------------5--|
E|----------------4------------------------------------|
It's a shame, oh yeah! But it ain't no mama, ain't gonna end

[Chorus] (x2)
e|-----------------------------------------------------|
B|-----------------------------------------------------|
G|---7--7-----------------------------2--2--2--2--2----|
D|---7--7-----------------------------2--2--2--2--2----|
A|---5--5--------------2---4---2------0--0--0--0--0----|
E|---------------------0---0---0-----------------------|
That's right, he's a pocket full of hate,

e|----------------------------------|
B|----------------------------------|
G|-----------------2--2--2--2--2----|
D|-----------------2--2--2--2--2----|
A|--2---4---2------0--0--0--0--0----|
E|--0---0---0-----------------------|
That don't give a damn.

e|-----------------------------------------------|
B|-----------------------------------------------|
G|------------------4---------7-----7-----7------|
D|------------------4---------7-----7-----7------|
A|---2---4---2------2---------5-----5-----5------|
E|---0---0---0-----------------------------------|
What fate awaitsthe machine gun man?

e|--------------------------------------------------------------|
B|--------------------------------------------------------------|
G|---------------2--2--2--2--2------------------2--2--2--2--2---|
D|---------------2--2--2--2--2------------------2--2--2--2--2---|
A|--2---4---2----0--0--0--0--0-----2---4---2----0--0--0--0--0---|
E|--0---0---0----------------------0---0---0--------------------|
 Well he ain't got no future, child. And he ain't got no plan. Lord!

e|-------------------------------------------|
B|-------------------------------------------|
G|---------------4----------7----------7-----|
D|---------------4----------7----------7-----|
A|--2---4---2----2----------5----------5-----|
E|--0---0---0--------------------------------|
 What fate awaits the machine gun man? Step aside, child.

[Outro]
e|-----------------------------------------------------|
B|--------------------12-10----------------------------|
G|------------9h11/13-13-11---7--7--7--7---------------|
D|-------9h11-----------------7--7--7--7---------------|
A|-9h11--0--------------------9--9--7--7--7h9p7--------|
E|-0-------------------------10-10--9--9--------9p7----|

e|----------------------------------0----0----0----0---|
B|----------------------------------0----0----0----0---|
G|--7--7--7--7----------------------1----0h1--0h1--1---|
D|--7--7--7--7-----------7/9---7--0-2----2----2----2---|
A|--9--9--7--7--7h9p7----9/11--9--0-2----2----2----2---|
E|-10-10--9--9--------9p7-----------0----0----0----0---|

e|-----------------------------------------------------|
B|--------------------12-10----------------------------|
G|------------9h11/13-13-11---7--7--7--7---------------|
D|-------9h11-----------------7--7--7--7---------------|
A|-9h11--0--------------------9--9--7--7--7h9p7--------|
E|-0-------------------------10-10--9--9--------9p7----|

e|----------------------------------0---|
B|----------------------------------0---|
G|--7--7--7--7----------------------1---|
D|--7--7--7--7-----------7/9---7--0-2---|
A|--9--9--7--7--7h9p7----9/11--9--0-2---|
E|-10-10--9--9-------9p7------------0---|



************************************

| h  Hammer-on
| /  Slide up
| p  Pull-off
| \  Slide down

************************************

            
            
Suggest correction
Creating personal tab
Creating personal tab
You can edit any tab online and save it as your Personal.

You can edit, replace or remove any tab part or add personal notes – all changes will be seen only by you.

Personal tabs can be accessed anytime from any device, even offline.
Learn more »
comments
print report bad tab
1 comment total.
0 reply
pluginxbabyy 70 Aug 19, 2011 07:16 PM

This is ****ing spot on! It's a fun song to play when you're just jammin by yourself. The only thing I would say is an alternative to chorus is this [yours is great anyway, this is just how I play it]:

E|-x-x-x------
B|-x-x-x-----
G|-x-x-x---2~
D|-2-2-2---2~
A|-2-2-2---0~
E|-0-3~p0---

Just basically using your third finger to do that little bend and up to an a chord. Great job! I love this tab!

guest
You may want to rate the tab now too:
select rating
Wanna post a correction for this tab? Suggest correction