Oops, an error
Loading. Please wait.

Sleeping Dogs tab

version 1
version 1

Whole song

Interactive

18,034 views 27 this week
1 commentread comment
1 2 3 4 5
x 14
add to favorites
×
Save as Personal and add changes to this tab that will be seen only by you. Learn more ›
×
You can save this tab as Personal to edit and correct it or add notes. All changes will be seen only by you. Learn more »
launch autoscroll
font size
0
reset
how to read this tab
guitar tuner
backing track
0:00
0:00
edit
Autoscroll
slow
fast
+/-
esc
set tempo
stop
Author
[Repeating Electric Riff]

e|---------------------------------------------------------------------------|
B|-------------------3b----------------5b------------------------------------|
G|----------5s7--5---3b-----7b8r7-5-3--5b-p3---------------------------------|
D|-----------------------5-------------------5-------------------------------|
A|---------------------------------------------------------------------------|
E|---------------------------------------------------------------------------|


[Intro and Post Chorus lick]

e|---------------------------------------------------------------------------|
B|---------------------------------------------------------------------------|
G|---------------------------------------------------------------------------|
D|----------------3-----3----------------------------------------------------|
A|------------3h5---3h5---5p3------------------------------------------------|
E|---------------------------------------------------------------------------|


[Chords (Intro/Verse)]

e|------3---3-----3-------------------3-----1----3-----3------------------------|
B|------3---4-----4-------------------3-----1----4-----4------------------------|
G|------3---3-----3-------------------3-----2----3-----3------------------------|
D|------5---5---3h5-------x2----------5-----3----5---3h5------------------------|
A|------5---6-----6-------------------5-----3----6-----6------------------------|
E|------3---3-----3-------------------3-----1----3-----3------------------------|


[Chords (Chorus)]

e|-----3------3------1------3------------------------------------------------|
B|-----4------3------1------4------------------------------------------------|
G|-----5------3------2------3------------------------------------------------|
D|-----5------5------3------5------------------------------------------------|
A|-----3------5------3------6------------------------------------------------|
E|-----x------3------1------3------------------------------------------------|

For the solo just repeat these same chord progressions.

************************************

| x   Dead note
| g   Grace note
| (n) Ghost note
| h   Hammer-on
| p   Pull-off
| r   Release
| >   Accented note
| t   Tapping
| b   Bend
| br  Bend release
| pb  Pre-bend
| pbr Pre-bend release
| /   Slide up
| \   Slide down
| ~   Vibrato
| s   Slap
| P   Pop
| PM  Palm mute
| TR  Trill
| N   Tremolo

************************************

            
            
Suggest correction
Creating personal tab
Creating personal tab
You can edit any tab online and save it as your Personal.

You can edit, replace or remove any tab part or add personal notes – all changes will be seen only by you.

Personal tabs can be accessed anytime from any device, even offline.
Learn more »
comments
print report bad tab
1 comment total.
0 reply
mauriello1622 10 15 hours ago

this message alone can't describe how great zacks skills are as a musician

guest
You may want to rate the tab now too:
select rating
Wanna post a correction for this tab? Suggest correction