Oops, an error
Loading. Please wait.

The Star-Spangled Banner tab

17,876 views 15 this week
2 commentsread comments
1 2 3 4 5
x 6
add to favorites
×
Save as Personal and add changes to this tab that will be seen only by you. Learn more ›
×
You can save this tab as Personal to edit and correct it or add notes. All changes will be seen only by you. Learn more »
launch autoscroll
font size
0
reset
how to read this tab
guitar tuner
edit
Autoscroll
slow
fast
+/-
esc
set tempo
stop
Author
E -----------------0------4----2--0------ <-----| jimi hendirx way
B -0----------0---------------------------------|
G --1-----1-------------------------------------|
D ----2-----------------------------------------|
A ----------------------------------------------|
E ----------------------------------------------|

E --------------------------------------------------------------------------------------0--|
B -----------------7b---7—5^7^5---4---------4-5--5-----0----------0---------0--------------|
G -1-2-4---4-4-----------------------------6------------------1----------1----1------------|
D ------------------------------------------------------------------2----------2-----------|
A -----------------------------------------------------------------------------------------|
E -----------------------------------------------------------------------------------------|

E -2/4--4^5^4t---2^4^2t----0---------------------------------------------------------|
B -----------------------------------------------------------------------------------|
G ----------------------------------1-----3^1---3-4---6-8---6^8^6t-----4^6^4t--------|
D -----------------------------------------------------------------------------------|
A -----------------------------------------------------------------------------------|
E -----------------------------------------------------------------------------------|

E ----------------------------------------------0-0------------/4--44-5---7--7-------|
B ---------7b---5-7b—5^7^5t--4--/2--4------------------0-----------------------------|
G -4-4---------------------------------------------------1---------------------------|
D -----------------------------------------------------------2-----------------------|
A -----------------------------------------------------------------------------------|
E -----------------------------------------------------------------------------------|

(NOISE. This is created by just picking the strings and pressing the whammy bar.
Do whatever you think is
right for these noise sections.)

E -5-4----4--5-5----------------5-4-2^4^2t-0--------------------------------------12-------12-16--|
B ------7-----------(NOISE)---------------------4---2-4-5----------------/12-12-----12------------|
G ---------------------------------------------------------------1-1/2-2/4------------------------|
D ------------------------------------------------------------------------------------------------|
A ------------------------------------------------------------------------------------------------|
E ------------------------------------------------------------------------------------------------|

E -----12-16------12-16-------12-16-------0--0--0---------------------------4-5-4—2^4^2-0---------|
B -12----------12-----------12-----------0-------------4--2--2--2----4-5-7---------------------4b4|
G ------------------------------------------------------------------------------------------------|
D ------------------------------------------------------------------------------------------------|
A ------------------------------------------------------------------------------------------------|
E ------------------------------------------------------------------------------------------------|
(NOISE)

E -------------4-5-7------------------------------------------------------------------|
B ------5--7----------5-7—7/9--10-9^10^9t--7------------------------------------------|
G -4-4-------------------------------------------------9------------------------------|
D ------------------------------------------------------------------------------------|
A ------------------------------------------------------------------------------------|
E ------------------------------------------------------------------------------------|
Ending Chords:
E -5---------8-----------10-------------0--------------------------------------------|
B -5--------8------------10------------0---------------------------------------------|
G -6--------9-----------11------------1----------------------------------------------|
D -7-------10----------12------------2-----------------------------------------------|
A -x-------x------------x-------------2----------------------------------------------|
E -5-------8-----------10------------0-----------------------------------------------|
or you can do it this way   what ever works for you zakk wyld way
|------------------------------------------------------0-------|
|---------------------2---------h--h-------------------1-------|
|------h-h------------2---/11--9-11-9---7-------p-h----2-------|
|--7--4-7-4-----4--7--0--------------------4---6-4-6---2-------|
|------------5-------------------------------------------------|

                 trill
|--------------------------------------------------------------|
|----------b---------------------------------------------------|
|---------4-(6)--2424242---------------------------------2-----|
|--------------------------/6---4--6---7---7-------------2-----|
|-/7--7----------------------------------------7----4----0-----|
|--------------------------------------------------------------|

                                trill
|----------------------------------------------h--h------------|
|--------h-h--------------------b-------/14--12-14-12---10-----|
|-/9----6-9-6----6----6---9---12-(14)--------------------------|
|----------------7---------------------------------------------|
|---------------(0)--------------------------------------------|
|--------------------------------------------------------------|


                                trill
|------------------0----------------b----------------------------|
|------------------0--------------12-(14)----10-12-10---9--------|
|-/6---8/68---9---1------9---9-----------------------------------|
|------------------2---------------------------------------------|
|------------------2---------------------------------------------|
|------------------0---------------------------------------------|
                          Trill section~~~~~~~~~~~~~~~
|-------------------------------------9---9--9--10--12---12----|
|--7/9----10---10---/5---/2---2--------------------------------|
|-----------------------------2--------------------------------|
|-----------------------------2--------------------------------|
|-----------------------------0--------------------------------|
|--------------------------------------------------------------|

Fast Run that Repeats           Trill~~~~~~~~~~~~~~~~~~~

|-12-10-9-----------------9-10-12--|---10-9-7-9-10---10--------|
|---------12-10-9-9-10-12----------|---------------------------|
|.--------------------------------.|---------------------------|
|.--------------------------------.|---------------------------|
|----------------------------------|---------------------------|
|----------------------------------|---------------------------|

                                    trill~~~~~~~~~~~~~~~~~~~~~

|----10-9-7---------------7-9-10--|----10--9--7----------------|
|-----------10-9-7-7-9-10---------|--------------10--12--10----|
|.-------------------------------.|----------------------------|
|.-------------------------------.|----------------------------|
|---------------------------------|----------------------------|
|---------------------------------|----------------------------|

                     //////
|--------------------------------------------0-------------------|
|---9---7-9-10-------------------------------0-------------------|
|------------------6---86/8---9-9---9-------1--------------------|
|--------------------------------------------2-------------------|
|--------------------------------------------2-------------------|
|--------------------------------------------0-------------------|


|--------------------------------------------------------------|
|--------------------------------------------------------------|
|--------------------------------------h-----------------------|
|----------7--7---7---6-7-6-----------7-9---/12--11---9--7--7--|
|---7---7--------------------9--9--9---------------------------|
|--------------------------------------------------------------|


                                                                                      /////
|-------------------------------------------------b------------|
|-----------------------------------10--12--14--15-(17)--------|
|-----------------------------9--9-----------------------------|
|--9---7-9-7---6-----------------------------------------------|
|--------------------------------------------------------------|
|--------------------16///-------------------------------------|


|----------------------------------------------------------------|
|---10--12---14----15---12----10----10---------------------------|
|------------------------------x-----x---------------------------|
|------------------------------7-----7---------------------------|
|-----------------------------------(0)--------------------------|
|----------------------------------------------------------------|

            
            
Suggest correction
Creating personal tab
Creating personal tab
You can edit any tab online and save it as your Personal.

You can edit, replace or remove any tab part or add personal notes – all changes will be seen only by you.

Personal tabs can be accessed anytime from any device, even offline.
Learn more »
comments
print report bad tab
2 comments total.
0 reply
pr_gax70 10 Aug 01, 2009 10:58 AM

not very good unless im playing completely off

0 reply
bkm504 55 Aug 02, 2009 10:43 AM

yea im pretty sure ur playin completely off becuz u would have to listen to him do it and u might not have the speed down cuz honestly i got this lesson straight from him

guest
You may want to rate the tab now too:
select rating
Wanna post a correction for this tab? Suggest correction