Oops, an error
Loading. Please wait.

Si Jamais Joublie tab

version 1
version 1

Whole song

Interactive

by Zaz
442 views 6 this week
no commentswrite comment
1 2 3 4 5
2 more votes to show rating
add to favorites
×
Save as Personal and add changes to this tab that will be seen only by you. Learn more ›
×
You can save this tab as Personal to edit and correct it or add notes. All changes will be seen only by you. Learn more »
launch autoscroll
font size
0
reset
how to read this tab
guitar tuner
edit
Autoscroll
slow
fast
+/-
esc
set tempo
stop
Zaz - Si Jamais J'Oublie
https://www.youtube.com/watch?v=5ZDsCJ4rGD4

CAPO 4, standard tunning

[Intro]
  G                                         G
E|-----------------------------------------|----------------------------------------|
B|----3----3----3----3----3----3----3----3-|---3----3----3----3----3----3----3----3-|
G|----0----0----0----0----0----0----0----0-|---0----0----0----0----0----0----0----0-|
D|----0---5P0---0----0----0---5P0---0----0-|---0---5P0---0----0----0---5P0---0----0-|
A|-----------------------------------------|----------------------------------------|
E|--3----3----3----3----3----3----3----2---|-3----3----3----3----3----3----3----2---|

[Verse]
Rappelle-moi le jour et l'année
Rappelle-moi le temps qu'il faisait
   G                                                            Em
E|-----------------------------------------|--------------------------------------------------------------|
B|----3----3----3----3----3----3----3----3-|---3----3----3----3----0----0----0-----------0----0----0----0-|
G|----0----0----0----0----0----0----0----0-|---0----0----0----0----0----0----0-----------0----0----0----0-|
D|----0----0----0----0----0----0---5P0---0-|---0---5P0---0----0----2----2----2------2----2----2----2----2-|
A|-----------------------------------------|------------------------------------0H2-----------------------|
E|--3----3----3----3----3----3----3----2---|-3----3----3----2----0----0----0-----------0----0----0----0---|

Et si j'ai oublié,
Tu peux me secouer
   Am                                                C
E|-----------------------------------------------|----------------------------------------------|
B|----1----1----1-------------1----1----1--------|------1----1----1----1----1----1--------------|
G|----2----2----2------2------2----2----2--------|------0----0----0----0----0----0--------------|
D|----2----2----2--0H2--------2----2----2------0-|------2----2----2----2----2----2---0H2---2P0--|
A|--0----0----0-------------0----0----0----0H2---|----3----3----3----3----3----3----------------|
E|-----------------------------------------------|----------------------------------------------|

[Verse]
Et s'il me prend l'envie d'm'en aller
Enferme-moi et jette la clé
   G                                                                                  Em
E|-----------------------------------------|--------------------------------------------------------------|
B|----3----3----3----3----3----3----3----3-|---3----3----3----3----0----0----0-----------0----0----0----0-|
G|----0----0----0----0----0----0----0----0-|---0----0----0----0----0----0----0-----------0----0----0----0-|
D|----0----0----0----0----0----0---5P0---0-|---0---5P0---0----0----2----2----2------2----2----2----2----2-|
A|-----------------------------------------|------------------------------------0H2-----------------------|
E|--3----3----3----3----3----3----3----2---|-3----3----3----2----0----0----0-----------0----0----0----0---|

En piqûre de rappel
Dis comment je m'appelle
   Am                                                C                     D
E|----------------------------------------------|----------------------------2----2----2----2--------2--|
B|----1----1----1-------------1----1----1-------|------1----1----1----1------3----3----3----3------3----|
G|----2----2----2------2------2----2----2-------|------0----0----0----0------2----2----2----2----2------|
D|----2----2----2--0H2--------2----2----2-----0-|------2----2----2----2----0----0----0----0----0--------|
A|--0----0----0-------------0----0----0-----2---|----3----3----3----3-----------------------------------|
E|----------------------------------------------|-------------------------------------------------------|

[Refrain]
G                                      Em
Si jamais j'oublie, les nuits que j'ai passées les guitares et les cris
         C                G                 D
Rappelle-moi qui je suis, pourquoi, je suis en vie
G
Si jamais j'oublie les jambes à mon cou,
Em
Si un jour je fuis,
         C                G                 D
Rappelle-moi qui je suis, ce que je m'étais promis

[Verse]
Rappelle-moi mes rèves les plus fous
Rappelle-moi ces larmes sur mes joues
   G                                                            Em
E|-----------------------------------------|--------------------------------------------------------------|
B|----3----3----3----3----3----3----3----3-|---3----3----3----3----0----0----0-----------0----0----0----0-|
G|----0----0----0----0----0----0----0----0-|---0----0----0----0----0----0----0-----------0----0----0----0-|
D|----0----0----0----0----0----0---5P0---0-|---0---5P0---0----0----2----2----2------2----2----2----2----2-|
A|-----------------------------------------|------------------------------------0H2-----------------------|
E|--3----3----3----3----3----3----3----2---|-3----3----3----2----0----0----0-----------0----0----0----0---|

Et si j'ai oublié, combien j'aimais chanter
   Am                                                C                     D
E|-----------------------------------------------|----------------------------2----2----2----2-|
B|----1----1----1-------------1----1----1--------|------1----1----1----1------3----3----3----3-|
G|----2----2----2------2------2----2----2--------|------0----0----0----0------2----2----2----2-|
D|----2----2----2--0H2--------2----2----2------0-|------2----2----2----2----0----0----0----0---|
A|--0----0----0-------------0----0----0----0H2---|----3----3----3----3-------------------------|
E|-----------------------------------------------|---------------------------------------------|

[Refrain]
G                                      Em
Si jamais j'oublie, les nuits que j'ai passées les guitares et les cris
         C                G                 D
Rappelle-moi qui je suis, pourquoi, je suis en vie
G
Si jamais j'oublie les jambes à mon cou,
Em
Si un jour je fuis,
          C                G                 D
Rappelle- moi qui je suis, ce que je m'étais promis

[Hook]
C           G     D          Em
Oh oh oh oh oh oh Ooooh oh oh Ooooh
C           G     D
Oh oh oh oh oh oh Ooooh...
D
(Rappelle-moi qui je suis)

[Refrain]
G
Si jamais j'oublie les jambes à mon cou,
Em
Si un jour je fuis,
         C                G                 D
Rappelle-moi qui je suis, ce que je m'étais promis

[Outro]
Si jamais j'oublie, les nuits que j'ai passées les guitares et les cris
   G                                                            Em
E|-----------------------------------------|----------------------------------------|
B|----3----3----3----3----3----3----3----3-|---0----0----0----0----0----0----0----0-|
G|----0----0----0----0----0----0----0----0-|---0----0----0----0----0----0----0----0-|
D|----0----0----0----0----0----0---5P0---0-|---2----2----2----2----2----2----2----2-|
A|-----------------------------------------|----------------------------------------|
E|--3----3----3----3----3----3----3----2---|-0----0----0----0----0----0----0----0---|

Rappelle-moi qui je suis, pourquoi, je suis en vie
   C                   G                     D
E|----------------------------------------------2----2----2----2-|
B|----1----1----1----1----3----3----3----3------3----3----3----3-|
G|----0----0----0----0----0----0----0----0------2----2----2----2-|
D|----2----2----2----2----0----0----0----0----0----0----0----0---|
A|--3----3----3----3---------------------------------------------|
E|----------------------3----3----3----3-------------------------|

G                       G...
Rappelle-moi le jour et l'année

            
            
Suggest correction
Creating personal tab
Creating personal tab
You can edit any tab online and save it as your Personal.

You can edit, replace or remove any tab part or add personal notes – all changes will be seen only by you.

Personal tabs can be accessed anytime from any device, even offline.
Learn more »
Give kudos to tab author, rate the tab!
1 2 3 4 5
comments
print report bad tab
guest
You may want to rate the tab now too:
select rating
Wanna post a correction for this tab? Suggest correction