Oops, an error
Loading. Please wait.

Call Your Friends bass

version 1
version 1

Whole song

Interactive

1,930 views 1 this week
1 commentread comment
1 2 3 4 5
x 3
add to favorites
×
Save as Personal and add changes to this tab that will be seen only by you. Learn more ›
×
You can save this tab as Personal to edit and correct it or add notes. All changes will be seen only by you. Learn more »
launch autoscroll
font size
0
reset
guitar tuner
edit
Autoscroll
slow
fast
+/-
esc
set tempo
stop
Author
Difficulty
This my tab to Zebraheads first single off the new record "Call Your Friends". This song
is ass-kickin', that's why I made a bass tab for it. I hope it's all correct.
Please don't forget to rate and have fun playing this song.

Intro
G|----------------|
D|----------------|
A|----------------|
E|4~~~4~~~5~~~5~~~|
  Q   Q   Q   Q

Main Riff
G|----------------|----------------|----------------|----------------|
D|----------------|----------------|----------------|----------------|
A|7-7-7-7-7-7-7-7-|7-7-7-7-7-7-7-7-|----------------|----------------|
E|----------------|----------------|7-7-7-7-7-7-7-7-|4-4-4-4-5-5-5-5-|
  E E E E E E E E  E E E E E E E E  E E E E E E E E  E E E E E E E E

G|----------------|----------------|----------------|----------------|
D|----------------|----------------|----------------|----------------|
A|7-7-7-7-7-7-7-7-|7-7-7-7-7-7-7-7-|----------------|----------------|
E|----------------|----------------|7-7-7-7-7-7-7-7-|4~~~4~~~5~~~5~~~|
  E E E E E E E E  E E E E E E E E  E E E E E E E E  Q   Q   Q   Q

Verse
G|----------------|----------------|----------------|----------------|
D|--------6-6-----|--------6-6-----|--------7-7-----|----------------|
A|4-4-6-7-----7-6-|4-4-6-7-----7-6-|----6-7-----6-7-|----6-7-----6-7-|
E|----------------|----------------|5-5-------------|4-4-----4-4-----|
  E E E E E E E E  E E E E E E E E  E E E E E E E E  E E E E E E E E

G|----------------|----------------|----------------|----------------|
D|--------6-6-----|--------6-6-----|--------7-7-----|----------------|
A|4-4-6-7-----7-6-|4-4-6-7-----7-6-|----6-7-----6-7-|4~~~4~~~6~~~6~~~|
E|----------------|----------------|5-5-------------|----------------|
  E E E E E E E E  E E E E E E E E  E E E E E E E E  Q   Q   Q   Q

Pre-Chorus
G|----------------|----------------|----------------|----------------|
D|----------------|----------------|----------------|----------------|
A|7~~~~~7~~~~~7~~~|----------------|----------------|----------------|
E|----------------|7~~~~~7~~~~~7~~~|4~~~~~4~~~~~4~~~|7-5-4-0-7-5-4-0-|
  Q.    Q.    Q    Q.    Q.    Q    Q.    Q.    Q    E E E E E E E E

G|----------------|----------------|----------------|----------------|
D|----------------|----------------|----------------|----------------|
A|7~~~~~7~~~~~7~~~|----------------|----------------|----------------|
E|----------------|7~~~~~7~~~~~7~~~|4~~~~~4~~~~~4~~~|5~~~~~~~~~~~~~~~|
  Q.    Q.    Q    Q.    Q.    Q    Q.    Q.    Q    F

Chorus 1
G|----------------|----------------|----------------|----------------|
D|----------------|----------------|----------------|----------------|
A|7-7-7-7-7-7-7-7-|----------------|----------------|----------------|
E|----------------|7-7-7-7-7-7-7-7-|4-4-4-4-4-4-4-4-|5-5-5-5-5-5-5-5-|
  E E E E E E E E  E E E E E E E E  E E E E E E E E  E E E E E E E E

G|----------------|----------------|----------------|----------------|
D|----6-6-7-7-9-9-|----------------|----------------|----------------|
A|7-7-------------|----6-6-7-7-9-9-|----------------|4-4-4-4-6-6-6-6-|
E|----------------|7-7-------------|5-5-5-5-5-5-5-5-|----------------|
  E E E E E E E E  E E E E E E E E  E E E E E E E E  E E E E E E E E

G|----------------|----------------|----------------|----------------|
D|----------------|----------------|----------------|----------------|
A|7-7-7-7-7-7-7-7-|----------------|----------------|----------------|
E|----------------|7-7-7-7-7-7-7-7-|4-4-4-4-4-4-4-4-|5-5-5-5-5-5-5-5-|
  E E E E E E E E  E E E E E E E E  E E E E E E E E  E E E E E E E E

G|----------------|----------------|----------------|----------------|
D|----6-6-7-7-9-9-|----------------|----------------|----------------|
A|7-7-------------|----6-6-7-7-9-9-|----------------|4~~~4~~~6~~~6~~~|
E|----------------|7-7-------------|5-5-5-5-5-5-5-5-|----------------|
  E E E E E E E E  E E E E E E E E  E E E E E E E E  Q   Q   Q   Q

Main Riff (only 2nd row)
Verse
Pre-Chorus

Chorus 2
G|----------------|----------------|----------------|----------------|
D|----------------|----------------|----------------|----------------|
A|7-7-7-7-7-7-7-7-|----------------|----------------|----------------|
E|----------------|7-7-7-7-7-7-7-7-|4-4-4-4-4-4-4-4-|5-5-5-5-5-5-5-5-|
  E E E E E E E E  E E E E E E E E  E E E E E E E E  E E E E E E E E

G|----------------|----------------|----------------|----------------|
D|----6-6-7-7-9-9-|----------------|----------------|----------------|
A|7-7-------------|----6-6-7-7-9-9-|----------------|4-4-4-4-6-6-6-6-|
E|----------------|7-7-------------|5-5-5-5-5-5-5-5-|----------------|
  E E E E E E E E  E E E E E E E E  E E E E E E E E  E E E E E E E E

G|----------------|----------------|----------------|----------------|
D|----------------|----------------|----------------|----------------|
A|7-7-7-7-7-7-7-7-|----------------|----------------|----------------|
E|----------------|7-7-7-7-7-7-7-7-|4-4-4-4-4-4-4-4-|5-5-5-5-5-5-5-5-|
  E E E E E E E E  E E E E E E E E  E E E E E E E E  E E E E E E E E

G|----------------|----------------|----------------|----------------|
D|----6-6-7-7-9-9-|----------------|----------------|----------------|
A|7-7-------------|----6-6-7-7-9-9-|----------------|----------------|
E|----------------|7-7-------------|5-5-5-5-5-5-5-5-|5-5-5-5-5-5-5-5-|
  E E E E E E E E  E E E E E E E E  E E E E E E E E  E E E E E E E E

Bass while Guitar Solo
G|--------6~~~6~~~|----------------|----------------|----------------|
D|----------------|--------7~~~7~~~|--------4~~~4~~~|----------------|
A|4~~~~~4---------|----------------|----------------|----3-3-4-4-6-6-|
E|----------------|5~~~~~5---------|2~~~~~2---------|4-4-------------|
  Q.    E Q   Q    Q.    E Q   Q    Q.    E Q   Q    E E E E E E E E

G|--------6~~~6~~~|----------------|----------------|----------------|
D|----------------|--------7~~~7~~~|--------4~~~4~~~|----------------|
A|4~~~~~4---------|----------------|----------------|----------------|
E|----------------|5~~~~~5---------|2~~~~~2---------|4\161616161616/~|
  Q.    E Q   Q    Q.    E Q   Q    Q.    E Q   Q    E E E E E E Q

G|----------------|----------------|----------------|----------------|
D|----------------|----------------|----------------|----------------|
A|4-4-4-4-4-4-4-4-|----------------|----------------|----------------|
E|----------------|5-5-5-5-5-5-5-5-|2-2-2-2-2-2-2-2-|4-4-4-4-4-4-4-4-|
  E E E E E E E E  E E E E E E E E  E E E E E E E E  E E E E E E E E

G|----------------|----------------|----------------|----------------|
D|----------------|----------------|----------------|----------------|
A|4-4-4-4-4-4-4-4-|----------------|----------------|----------------|
E|----------------|5-5-5-5-5-5-5-5-|2-2-2-2-2-2-2-2-|4\161616161616/~|
  E E E E E E E E  E E E E E E E E  E E E E E E E E  E E E E E E Q

Main Riff Variation
G|----------------|----------------|----------------|----------------|
D|----------------|----------------|----------------|----------------|
A|7-7-7-7-7-7-7-7-|7-7-7-7-7-7-7-7-|----------------|----------------|
E|----------------|----------------|7-7-7-7-7-7-7-7-|4-4-4-4-5-5-5-5-|
  E E E E E E E E  E E E E E E E E  E E E E E E E E  E E E E E E E E

G|----------------|----------------|----------------|----------------|
D|----------------|----------------|----------------|----------------|
A|7-7-7-7-7-7-7-7-|7-7-7-7-7-7-7-7-|----------------|----------------|
E|----------------|----------------|7---------------|----------------|
  E E E E E E E E  E E E E E E E E  E E H.           F

Short pause
Chorus 3 = Chorus 1
Main Riff

Outro
G|----------------|----------------|----------------|----------------|
D|----------------|----------------|----------------|----------------|
A|7~~~~~~~~~~~~~~~|~~~~~~~~~~~~~~~~|~~~~~~~~~~~~~~~~|~~~~~~~~~~~~~~~~|
E|----------------|----------------|----------------|----------------|
  F                F                F                F

F = Full note
H = Half note
Q = Quarter note
E = Eighth note
S = Sixteenth note
. = makes the note a half longer
\ = Slide up
/ = Slide down
h = Hammer-on
p = Pull-off
b = Bending
X = Mute note

            
            
Suggest correction
Creating personal tab
Creating personal tab
You can edit any tab online and save it as your Personal.

You can edit, replace or remove any tab part or add personal notes – all changes will be seen only by you.

Personal tabs can be accessed anytime from any device, even offline.
Learn more »
Give kudos to tab author, rate the tab!
1 2 3 4 5
comments
print report bad tab
1 comment total.
+1 reply
kubariseordie 10 Aug 20, 2013 07:10 AM

the bridge part 1 timing is faster, but excelent work !

guest
You may want to rate the tab now too:
select rating
Wanna post a correction for this tab? Suggest correction