Oops, an error
Loading. Please wait.

Hmp bass

version 1
version 1

Whole song

Interactive

1,971 views 3 this week
3 commentsread comments
1 2 3 4 5
x 4
add to favorites
×
Save as Personal and add changes to this tab that will be seen only by you. Learn more ›
×
You can save this tab as Personal to edit and correct it or add notes. All changes will be seen only by you. Learn more »
launch autoscroll
font size
0
reset
guitar tuner
edit
Autoscroll
slow
fast
+/-
esc
set tempo
stop
Author
Difficulty
Intro  
       
       (x1)              (x4)       (x1)                            (x2)
g---------|------------------|---------|----------------------------------|
d---------|------------------|---------|----------------------------------|
a-666666--|------------------|--2---2--|---------22222222--------44444444-|
e---------|-7777666655554444-|-4-0-4-0-|-44444444--------22222222---------|

---------|
---------|
--2---2--|
-4-0-4-0-|

Verse 
              (x4)
g---------------------------------|
d---------------------------------|
a-----2---------4-----5---------2-|
e-4434-1-2-1-2-1--4434-1-2-1-2-1--|

Pre-Chorus 
     (x1)
g--------------|
d--------------|
a--2---2-------|
e-4-0-4-0-44444|

Chorus (x2)

g------------------------------------|
d------------------------------------|
a---------77777777-22222222-66666666-|
e-44444444---------------------------|

Pre-verse
   (x1)
g---------|
d---------|
a--2---2--|
e-4-0-4-0-|

Verse 2
              (x4)
g---------------------------------|
d---------------------------------|
a-----2---------4-----5---------2-|
e-4434-1-2-1-2-1--4434-1-2-1-2-1--|

Pre-Chorus 
     (x1)
g--------------|
d--------------|
a--2---2-------|
e-4-0-4-0-44444|

Chorus 2 (x2)

g------------------------------------|
d------------------------------------|
a---------77777777-22222222-66666666-|
e-44444444---------------------------|

Pre-Chorus 
     (x1)
g--------------|
d--------------|
a--2---2-------|
e-4-0-4-0-44444|

Bridge
              (x2)                  (x4)
g----------------------------------|----|
d----------------------------------|----|
a---------22222222--------44444444-|----|
e-44444444--------22222222---------|-4~-|

              (x2)
g---------------------------------|
d---------------------------------|
a-----2---------4-----5---------2-|
e-4434-1-2-1-2-1--4434-1-2-1-2-1--|

g---------------------------|
d---------------------------|
a---------------------------|
e-7777666655554444333333333-|


Chorus 3 (x4)

g------------------------------------|
d------------------------------------|
a---------77777777-22222222-66666666-|
e-44444444---------------------------|

           (x2)
g---------------------------|
d---------------------------|
a---------------------------|
e-7777666655554444333333333-|

g---------x|
d---------x|
a--2---2--x|
e-4-0-4-0-x|



















            
            
Suggest correction
Creating personal tab
Creating personal tab
You can edit any tab online and save it as your Personal.

You can edit, replace or remove any tab part or add personal notes – all changes will be seen only by you.

Personal tabs can be accessed anytime from any device, even offline.
Learn more »
comments
print report bad tab
3 comments total.
+1 reply
chrisjenks 2,712 Aug 17, 2008 04:03 AM

i think these parts

---------|
---------|
--2---2--|
-4-0-4-0-|

might be like this:

---------|
---------|
--2---2--|
-4-2-4-2-|

0 reply
chrisirocksit. 235 Aug 17, 2008 09:27 AM

after the pre chorus you have to slide down very fast. (sounds better)

0 reply
Jebus121 484 Dec 28, 2008 08:03 AM

sounds more like
---------|
---------|
--2---2--|
-4-3-4-3-|

and these bits could be
g---------------------------------|
d---------------------------------|
a-----2---------4-----5---------1-|
e-4434-1-2-1-2-4--4434-1-2-1-2-1--|

only slight changes but pretty good

guest
You may want to rate the tab now too:
select rating
Wanna post a correction for this tab? Suggest correction