Oops, an error
Loading. Please wait.

Hmp tab

version 3
version 3

Whole song

Interactive

1,477 views 1 this week
no commentswrite comment
1 2 3 4 5
1 last vote to show rating
add to favorites
×
Save as Personal and add changes to this tab that will be seen only by you. Learn more ›
×
You can save this tab as Personal to edit and correct it or add notes. All changes will be seen only by you. Learn more »
launch autoscroll
font size
0
reset
how to read this tab
guitar tuner
edit
Autoscroll
slow
fast
+/-
esc
set tempo
stop
-------------------------------------------------------------------------------
                             HMP - Zebrahead
-------------------------------------------------------------------------------
Tabbed by:whoomit

Tuning: Guitar 1 - Matty Lewis - Half Step Down (Eb,Ab,Db,Gb,Bb,eb)
        Guitar 2 - Greg Bergdorf - Eb, Ab, Gb, Ab, Bb, Eb (half step down, with 
3rd string tuned up)

                   Notes in brackets are not played by guitar 2

INTRO
Guitar 1
eb|---------------------------------------------------------------------------|
Bb|---------------------------------------------------------------------------|
Gb|(9)-(9)-(9)-(9)-(9)-(9)-(9)------------------------------------------------|
Db|-9---9---9---9---9---9---9-------------------------------------------------|
Ab|-7---7---7---7---7---7---7-------------------------------------------------|
Eb|-0---0---0---0---0---0---0-------------------------------------------------|


0:03
Guitar 1 + 2
eb|---------------------------------------------------------------------------|
Bb|---------------------------------------------------------------------------|
Gb|---------------------------------------------------------------------------|
Db|---------------------------------------------------------------------------|
Ab|-1010101010101010-99999999-88888888-77777777-------------------------------|
Eb|-8-8-8-8-8-8-8-8--77777777-66666666-55555555-------------------------------| X3
  PM...........................................

eb|---------------------------------------------------------------------------|
Bb|---------------------------------------------------------------------------|
Gb|--------------------------------------(5)------(5)-------------------------|
Db|------------------------------------7--5--4--7--5--4-----------------------|
Ab|-1010101010101010-99999999-88888888-7--3--4--7--3--4-----------------------|
Eb|-8-8-8-8-8-8-8-8--77777777-66666666-5-----2--5-----2-----------------------|
  PM...................................


0:15
Guitar 1
eb|---------------------------------------------------------------------------|
Bb|---------------------------------------------------------------------------|
Gb|----------5555-555----------7777-777----------5555-555----------7777-777---|
Db|-7777-777-5555-555-5555-555-7777-777-7777-777-5555-555-5555-555-7777-777---|
Ab|-7777-777-3333-333-5555-555-5555-555-7777-777-3333-333-5555-555-5555-555---|
Eb|-5555-555----------3333-333----------5555-555----------3333-333------------|

Guitar 2 (trem picking) play this 8 times.
eb|---------------------------------------------------------------------------|
Bb|---------------------------------------------------------------------------|
Ab|-3-0-0-2-0-0-3-0-0-7-0-0-6-0-5-0-------------------------------------------|
Db|---------------------------------------------------------------------------|
Ab|---------------------------------------------------------------------------|
Eb|---------------------------------------------------------------------------|


PRE VERSE 0:27 
Guitar 1 + 2
eb|---------------------------------------------------------------------------|
Bb|---------------------------------------------------------------------------|
Gb|---(5)------(5)------------------------------------------------------------|
Db|-7--5--4--7--5--4----------------------------------------------------------|
Ab|-7--3--4--7--3--4----------------------------------------------------------|
Eb|-5-----2--5-----2----------------------------------------------------------|


VERSE 0:29
Guitar 1  (4 times)
eb|---------------------------------------------------------------------------|
Bb|---------------------------------------------------------------------------|
Gb|---------------------------------------------------------------------------|
Db|-------------5---------------7---------------8-----------------4-----------|
Ab|-7---7-6-7---3-----4-5-4-5-4-5---7---7-6-7---6-----4-5-4-5-4---2-----------|
Eb|-5---5-4-5---------2-3-2-3-2-----5---5-4-5---------2-3-2-3-2---------------|
PM  .   . . .         . . . . .     .   . . .         . . . . .

Guitar 2   (enters on 3rd time, plays twice)
eb|-------------------------12~~~-11~~~-10~~~-9~~~~---------------------------|
Bb|-13~~~-12~~~-11~~~-10~~~-13~~~-12~~~-11~~~-10~~~---------------------------|
Ab|---------------------------------------------------------------------------|
Db|---------------------------------------------------------------------------|
Ab|---------------------------------------------------------------------------|
Eb|---------------------------------------------------------------------------|


PRE CHORUS 0:52
Guitars 1 + 2
eb|---------------------------------------------------------------------------|
Bb|---------------------------------------------------------------------------|
Gb|---(5)------(5)---(777777777)----------------------------------------------|
Db|-7--5--4--7--5--4--777777777-----------------------------------------------|
Ab|-7--3--4--7--3--4--555555555-----------------------------------------------|
Eb|-5-----2--5-----2----------------------------------------------------------|


CHORUS 0:54
Guitar 1 + 2
eb|---------------------------------------------------------------------------|
Bb|---------------------------------------------------------------------------|
Gb|--------(10101010)--------(99999999)--------(10101010)--------(9-9-9-9-9-9)|
Db|77777777-10101010-10101010-99999999-77777777-10101010-10101010-9-9-9-9-9-9-|
Ab|77777777-88888888-10101010-77777777-77777777-88888888-10101010-7-7-7-7-7-7-|
Eb|55555555----------88888888----------55555555----------88888888-------------|


PRE VERSE 1:06
Guitar 1 + 2
eb|---------------------------------------------------------------------------|
Bb|---------------------------------------------------------------------------|
Gb|---(5)------(5)------------------------------------------------------------|
Db|-7--5--4--7--5--4----------------------------------------------------------|
Ab|-7--3--4--7--3--4----------------------------------------------------------|
Eb|-5-----2--5-----2----------------------------------------------------------|


VERSE 1:08
Guitar 1  (4 times)
eb|---------------------------------------------------------------------------|
Bb|---------------------------------------------------------------------------|
Gb|---------------------------------------------------------------------------|
Db|-------------5---------------7---------------8-----------------4-----------|
Ab|-7---7-6-7---3-----4-5-4-5-4-5---7---7-6-7---6-----4-5-4-5-4---2-----------|
Eb|-5---5-4-5---------2-3-2-3-2-----5---5-4-5---------2-3-2-3-2---------------|
PM  .   . . .         . . . . .     .   . . .         . . . . .

Guitar 2   (enters on 3rd time, plays twice)
eb|-------------------------12~~~-11~~~-10~~~-9~~~~---------------------------|
Bb|-13~~~-12~~~-11~~~-10~~~-13~~~-12~~~-11~~~-10~~~---------------------------|
Ab|---------------------------------------------------------------------------|
Db|---------------------------------------------------------------------------|
Ab|---------------------------------------------------------------------------|
Eb|---------------------------------------------------------------------------|


PRE CHORUS 1:31
Guitars 1 + 2
eb|---------------------------------------------------------------------------|
Bb|---------------------------------------------------------------------------|
Gb|---(5)------(5)---(777777777)----------------------------------------------|
Db|-7--5--4--7--5--4--777777777-----------------------------------------------|
Ab|-7--3--4--7--3--4--555555555-----------------------------------------------|
Eb|-5-----2--5-----2----------------------------------------------------------|


CHORUS 1:34
Guitar 1 + 2
eb|---------------------------------------------------------------------------|
Bb|---------------------------------------------------------------------------|
Gb|--------(10101010)--------(99999999)--------(10101010)--------(9-9-9-9-9-9)|
Db|77777777-10101010-10101010-99999999-77777777-10101010-10101010-9-9-9-9-9-9-|
Ab|77777777-88888888-10101010-77777777-77777777-88888888-10101010-7-7-7-7-7-7-|
Eb|55555555----------88888888----------55555555----------88888888-------------|


PRE VERSE 1:46
Guitar 1 + 2
eb|---------------------------------------------------------------------------|
Bb|---------------------------------------------------------------------------|
Gb|---(5)------(5)------------------------------------------------------------|
Db|-7--5--4--7--5--4--6666666666666666----------------------------------------|
Ab|-7--3--4--7--3--4--6666666666666666----------------------------------------|
Eb|-5-----2--5-----2--4444444444444444----------------------------------------|


SOLO PART 1  1:49
Guitar 1
eb|---------------------------------------------------------------------------|
Bb|---------------------------------------------------------------------------|
Gb|----------5555-555----------7777-777----------5555-555----------7777-777---|
Db|-7777-777-5555-555-5555-555-7777-777-7777-777-5555-555-5555-555-7777-777---|
Ab|-7777-777-3333-333-5555-555-5555-555-7777-777-3333-333-5555-555-5555-555---|
Eb|-5555-555----------3333-333----------5555-555----------3333-333------------|

Guitar 2 - enter with pickslide (play twice)
eb|---------------------------------------------------------------------------|
Bb|---------------------------------------------------------------------------|
Ab|-------0-h3-t7-p0-h3-t5-p0-h3-t7-p0-h3-t5-p0-h3-t7-p0-t5-------------------|
Db|---------------------------------------------------------------------------|
Ab|---------------------------------------------------------------------------|
Eb|---------------------------------------------------------------------------|

eb|---------------------------------------------------------------------------|
Bb|---------------------------------------------------------------------------|
Ab|--------p0-t8-p0-h5-t7-p0-h5-t8-p0-h5-t7-p0-h5-t8-p0-t7--------------------|
Db|---------------------------------------------------------------------------|
Ab|---------------------------------------------------------------------------|
Eb|---------------------------------------------------------------------------|

eb|---------------------------------------------------------------------------|
Bb|---------------------------------------------------------------------------|
Ab|-------p0-t10-p0-h7-t8-p0-h7-t10-p0-h7-t8-p0-h7-t10-p0-t8-p0---------------|
Db|---------------------------------------------------------------------------|
Ab|---------------------------------------------------------------------------|
Eb|---------------------------------------------------------------------------|

eb|---------------------------------------------------------------------------|
Bb|---------------------------------------------------------------------------|
Ab|----------t12-p8-p0-h8-t10-p7-p0-h7-t8-p5-p0-h5-t7-p3-p0-h3----------------|
Db|---------------------------------------------------------------------------|
Ab|---------------------------------------------------------------------------|
Eb|---------------------------------------------------------------------------|


SOLO PART 2  2:00 (play all twice)
Guitar 1
eb|---------------------------------------------------------------------------|
Bb|---------------------------------------------------------------------------|
Gb|---------------------------------------------------------------------------|
Db|-7-------------------------------------------------------------------------|
Ab|-7---let ring--------------------------------------------------------------|
Eb|-5-------------------------------------------------------------------------|

Guitar 2
eb|---------------------------------------------------------------------------|
Bb|---------------------------------------------------------------------------|
Ab|-------t19-p15-p0-h15-t17-p14-p0-h14-t15-p12-p0-h12-t14-p10-p0-h10---------|
Db|---------------------------------------------------------------------------|
Ab|---------------------------------------------------------------------------|X2
Eb|---------------------------------------------------------------------------|

eb|---------------------------------------------------------------------------|
Bb|---------------------------------------------------------------------------|
Ab|---------t15-p12-p0-h12-t14-p10-p0-h10-t12-p8-p0-h8-t10-p7-p0-h7-----------|
Db|---------------------------------------------------------------------------|
Ab|---------------------------------------------------------------------------|X2
Eb|---------------------------------------------------------------------------|


VERSE 2:12
Guitar 1 + 2   Play twice
eb|---------------------------------------------------------------------------|
Bb|---------------------------------------------------------------------------|
Gb|---------------------------------------------------------------------------|
Db|-------------5---------------7---------------8-----------------4-----------|
Ab|-7---7-6-7---3-----4-5-4-5-4-5---7---7-6-7---6-----4-5-4-5-4---2-----------|
Eb|-5---5-4-5---------2-3-2-3-2-----5---5-4-5---------2-3-2-3-2---------------|
PM  .   . . .         . . . . .     .   . . .         . . . . .


BRIDGE 2:23
Guitar 1 + 2
eb|---------------------------------------------------------------------------|
Bb|---------------------------------------------------------------------------|
Gb|---------------------------------------------------------------------------|
Db|---------------------------------------------------------------------------|
Ab|-10101010-99999999-88888888-77777777-6--let ring---------------------------|
Eb|-88888888-77777777-66666666-55555555-4-------------------------------------|
PM  ...................................


CHORUS 2:29
Guitar 1 + 2   Play Twice
eb|---------------------------------------------------------------------------|
Bb|---------------------------------------------------------------------------|
Gb|--------(10101010)--------(99999999)--------(10101010)--------(9-9-9-9-9-9)|
Db|77777777-10101010-10101010-99999999-77777777-10101010-10101010-9-9-9-9-9-9-|
Ab|77777777-88888888-10101010-77777777-77777777-88888888-10101010-7-7-7-7-7-7-|
Eb|55555555----------88888888----------55555555----------88888888-------------|


OUTRO 2:52
Guitar 1 + 2
eb|---------------------------------------------------------------------------|
Bb|---------------------------------------------------------------------------|
Gb|---------------------------------------------------------------------------|
Db|---------------------------------------------------------------------------|
Ab|-1010101010101010-99999999-88888888-77777777-------------------------------|
Eb|-8-8-8-8-8-8-8-8--77777777-66666666-55555555-------------------------------|
  PM...........................................

eb|---------------------------------------------------------------------------|
Bb|---------------------------------------------------------------------------|
Gb|---------------------------------------------------------------------------|
Db|---------------------------------------5--------5--------------------------|
Ab|-1010101010101010-99999999-88888888-7--3--4--7--3--4-----------------------|
Eb|-8-8-8-8-8-8-8-8--77777777-66666666-5-----2--5-----2-----------------------|
  PM..................................

Guitar 1
eb|---------------------------------------------------------------------------|
Bb|---------------------------------------------------------------------------|
Gb|---------------------------------------------------------------------------|
Db|---4-----------------------------------------------------------------------|
Ab|---4-----------------------------------------------------------------------|
Eb|---2-----------------------------------------------------------------------|




************************************

| /   slide up
| \   slide down
| h   hammer-on
| p   pull-off
| ~   vibrato
| +   harmonic
| x   Mute note
| b   Bend
| pb  Pre-bend
| br  Bend release
| pbr Pre-bend release
| brb Bend release bend

************************************

            
            
Suggest correction
Creating personal tab
Creating personal tab
You can edit any tab online and save it as your Personal.

You can edit, replace or remove any tab part or add personal notes – all changes will be seen only by you.

Personal tabs can be accessed anytime from any device, even offline.
Learn more »
Give kudos to tab author, rate the tab!
1 2 3 4 5
comments
print report bad tab
guest
You may want to rate the tab now too:
select rating
Wanna post a correction for this tab? Suggest correction