Oops, an error
Loading. Please wait.

Karma Flavored Whiskey tab

version 2
version 2

Whole song

Interactive

3,538 views 1 this week
no commentswrite comment
1 2 3 4 5
x 4
add to favorites
×
Save as Personal and add changes to this tab that will be seen only by you. Learn more ›
×
You can save this tab as Personal to edit and correct it or add notes. All changes will be seen only by you. Learn more »
launch autoscroll
font size
0
reset
how to read this tab
guitar tuner
edit
Autoscroll
slow
fast
+/-
esc
set tempo
stop
Author
------------------------------------------------------------------------
                Karma Flavored Shikey - Zebrahead
------------------------------------------------------------------------

Tabbed by: Whoomit
Email:callum_thomson666@hotmail.com

Tuning:EADGBe

Intro/Outro
Guitar 1
e|---------------------------------------------------------------------|
B|---------------------------------------------------------------------|
G|----8----8----8----8---8---8---8---8---8---8---8---8---8---8---8---8-|
D|----9----9----9----9---9---9---9---9---9---9---9---9---9---9---9---9-|
A|-11---11---11---11---9---9---9---9---7---7---7---7---8---8---8---8---|
E|---------------------------------------------------------------------| X3
Piano translated to guitar
e|-16--------18---19--14------21--19--12-------18--19--13------21--19--|
B|---------------------------------------------------------------------|
G|---------------------------------------------------------------------|
D|---------------------------------------------------------------------|
A|---------------------------------------------------------------------|
E|---------------------------------------------------------------------| 
End on:
e|-----0-----|
B|----0------|
G|---8-------|
D|--9--------|
A|-7---------|
E|-----------|

Guitar 2 fades in with some solo thing that I can't figure out

Guitar 1 Verse
e|---------------------------|
B|---------------------------|
G|----------------8----------|
D|-66--66-5-66--9-8-5--------|
A|-66--66-5-66--9-6-5--------|
E|-44--44-3-44--7---3--------|

Guitar 2 Verse
e|-----------------------------|
B|-99999999999999999999999999--|
G|-13131313131313131313131313--| <13's 
D|-----------------------------|
A|-----------------------------| Play this 2nd and 3rd time only,
E|-----------------------------| Then follow guitar 1 for 4 lines

Pre Chorus Guitar 1 Palm Muted
e|---------------------------|
B|---------------------------|
G|---------------------------|
D|-----------8888-13131313---|
A|-6666-9999-6666-11111111---|
E|-4444-7777-----------------|

Pre Chorus Guitar 2 Palm Muted
e|----------------------|
B|----------------------|
G|----------------------|
D|----------------6666--|
A|-----------6666-------|
E|-4444-7777------------|

Chorus - Both Guitars
e|--------------------------------------|
B|--------------------------------------|
G|-99999999-88888888--------------------|
D|-99999999-99999999-55555555-66666666--|
A|-77777777-66666666-66666666-66666666--|
E|-------------------33333333-44444444--|

Solo 
e|--------------------------------------------|
B|-9-11-12-9-12-11-9-11-12-9-12-11-9-11-12-11-|
G|--------------------------------------------|
D|--------------------------------------------|
A|--------------------------------------------|
E|--------------------------------------------|

e|--------------------------------------------|
B|----8-9-11-8-11-9-8-9-11-8-11-9-8-9-11-9----|
G|--------------------------------------------|
D|--------------------------------------------|
A|--------------------------------------------|
E|--------------------------------------------|

e|--------11---11-------11---11-------11------|
B|----8-9----8----9-8-9----8----9-8-9----8----|
G|--------------------------------------------|
D|--------------------------------------------|
A|--------------------------------------------|
E|--------------------------------------------|

e|------------------------------------------12-15----|
B|------------------------------14-17-11-14----------|
G|------------------12-15-12-15----------------------|
D|------------11-14----------------------------------|
A|------10-13----------------------------------------|
E|-9-12----------------------------------------------|

Tremolo picked
e|--16----15---------------16----15--------------|
B|-----16----14-12-14-11-9----16----14-12-14-----|  Bend the 13
G|-------------------------------------------13--|  up and down
D|-----------------------------------------------|  to 14 about
A|-----------------------------------------------|  four times.
E|-----------------------------------------------|

e|--16----15-------------------------------------|
B|-----16----14-12-14-11-9-----------------------|
G|-----------------------------------------------|
D|-----------------------------------------------|
A|-----------------------------------------------|
E|-----------------------------------------------|

e|--------------------------11h12p11----11h12p11-|
B|------11h12-11---11h12-14----------14----------|
G|-12h13--------h13------------------------------|
D|-----------------------------------------------|
A|-----------------------------------------------|
E|-----------------------------------------------|

Trem picked
e|-15-11-11-12-11 11-15-11-11-16-11-15-11-12-11-16--|
B|--------------------------------------------------|
G|--------------------------------------------------|
D|--------------------------------------------------|
A|--------------------------------------------------|
E|--------------------------------------------------|


| /  slide up
| \  slide down
| h  hammer-on
| p  pull-off
| ~  vibrato
| +  harmonic
| x  Mute note
===============================================================================

            
            
Suggest correction
Creating personal tab
Creating personal tab
You can edit any tab online and save it as your Personal.

You can edit, replace or remove any tab part or add personal notes – all changes will be seen only by you.

Personal tabs can be accessed anytime from any device, even offline.
Learn more »
comments
print report bad tab
guest
You may want to rate the tab now too:
select rating
Wanna post a correction for this tab? Suggest correction