Oops, an error
Loading. Please wait.

Morse Code For Suckers tab

1,475 views 1 this week
no commentswrite comment
1 2 3 4 5
x 3
add to favorites
×
Save as Personal and add changes to this tab that will be seen only by you. Learn more ›
×
You can save this tab as Personal to edit and correct it or add notes. All changes will be seen only by you. Learn more »
launch autoscroll
font size
0
reset
how to read this tab
guitar tuner
edit
Autoscroll
slow
fast
+/-
esc
set tempo
stop
Author
Intro1:

Guitar 1:

E)-----16-16-16-----16----16----16-----16-16-16-----------|
B)--------------------------------------------------------|
G)--------------------------------------------------------|
D)--------------------------------------------------------|
A)--------------------------------------------------------|
E)--------------------------------------------------------|

Guitar 2:

E)--------------------------------------------------------|
B)--------------------------------------------------------|
G)--------8-8-----8-8----8/-----6-6----6-6----6-----------|
D)---6-6------6-6----6-6----4-4----4-4-----4-4------------|
A)--------------------------------------------------------|
E)--------------------------------------------------------|

Intro2(40:00)

Guitar 1(00:40):

E)--------------------------------------------------------|
B)-------12---14------------------------------------------|
G)--------------------13---15---------13----13---15-------|
D)--13------------13------------13-16----16---------16----|
A)--------------------------------------------------------|
E)--------------------------------------------------------|

Guitar 2(00:40):

E)--------------------------------------------------------|
B)-------9---11-------------------------------------------|
G)----8-----------8---9----11----8-8--9--8--9----11-8-----|
D)--------------------------------------------------------|
A)--------------------------------------------------------|
E)--------------------------------------------------------|


Guitar 1:

E)--------------------------------------------------------|
B)-------12---14-------------------------------------12---|
G)--------------------13---15---------13----13---15-------|
D)--13------------13------------13-16----16---------------|
A)--------------------------------------------------------|
E)--------------------------------------------------------|

Guitar 2:

E)--------------------------------------------------------|
B)-------9---11-------------------------------------------|
G)----8-----------8---9----11----8-8--9--8--9----11--13---|
D)--------------------------------------------------------|
A)--------------------------------------------------------|
E)--------------------------------------------------------|


Guitar 1:

E)--------------------------------------------------------|
B)-------12---14------------------------------------------|
G)--------------------13---15---------13----13---15-------|
D)--13------------13------------13-16----16---------16----|
A)--------------------------------------------------------|
E)--------------------------------------------------------|

Guitar 2:

E)--------------------------------------------------------|
B)-------9---11-------------------------------------------|
G)----8-----------8---9----11----8-8--9--8--9----11-8-----|
D)--------------------------------------------------------|
A)--------------------------------------------------------|
E)--------------------------------------------------------|


Guitar 1(end of intro):

E)--------------------------------------------------------|
B)--------------------------------------------------------|
G)--11-13-11----9-11-9----8-9-8----6-8-6--4---------------|
D)--------------------------------------------------------|
A)--------------------------------------------------------|
E)--------------------------------------------------------|

Guitar 2(end of intro):

E)--------------------------------------------------------|
B)--------------------------------------------------------|
G)---8-9-8------6-8-6-----4-6-4-----3-4-3--1--------------|
D)--------------------------------------------------------|
A)--------------------------------------------------------|
E)--------------------------------------------------------|


Verse(00:51):

Guitar 1:

E)-------------------------------------------|
B)-------------------------------------------|
G)-------------------------------------------|   3x
D)-------------------------------------------|
A)------------------------------2------------|
E)---44-----2-44----2-44----2-4---4-2--------|

Guitar 1(00:58):

E)-------------------------------------------|
B)-------------------------------------------|
G)--4-4----8-8-------------------------------|
D)--4-4----8-8----2-2---5-5------------------|
A)--2-2----6-6----2-2---5-5------------------|
E)----------------0-0---3-3------------------|


Guitar 1(01:01):

E)-------------------------------------------|
B)-------------------------------------------|
G)-------------------------------------------|   3x
D)-------------------------------------------|
A)------------------------------2------------|
E)---44-----2-44----2-44----2-4---4-2--------|

Guitar 2(01:01) :

E)-------------------------------------------|
B)-------------------------------------------|
G)-------------------------------------------|   3x
D)-------------------------------------------|
A)-------------------------------------------|
E)---77-----6-77----6-77----6-7--9-7-6-------|


Guitar 1(01:08) :

E)-------------------------------------------|
B)-------------------------------------------|
G)--4-4----8-8-------------------------------|
D)--4-4----8-8----2-2---5-5------------------|
A)--2-2----6-6----2-2---5-5------------------|
E)----------------0-0---3-3------------------|


Between Part(01:10) :

Guitar 1:

E)-------------------------------------------|
B)-------------------------------------------|
G)--------------4--4----------------6--------|
D)----6--6------4--4-----2--2-------6--------|
A)----6--6------2--2-----2--2-------4--------|
E)----4--4---------------0--0----------------|
Annihilate...


Refrain(01:15):

Guitar 1:

E)-------------------------------------------|
B)-------------------------------------------|
G)--4444444444444444-8888888888888888--------|
D)--4444444444444444-8888888888888888--------|
A)--2222222222222222-6666666666666666--------|
E)-------------------------------------------|


E)-------------------------------------------|
B)-------------------------------------------|
G)-------------------9999999999999999--------|
D)--6666666666666666-9999999999999999--------| 2x
A)--6666666666666666-7777777777777777--------|
E)--4444444444444444-0000000000000000--------|

Intro2(01:33-01:43)

Verse(01:43-02:01)

Between Part(02:01-02:06)

Refrain(02:06-02:25)

Solo(02:25):

Guitar 1:


E)-------18-19------16-18----------16---------------------|
B)---16---------16---------16---19-----16--17--19---16----|
G)-----------------------------------------------------16-|
D)--------------------------------------------------------|
A)--------------------------------------------------------|
E)--------------------------------------------------------|

Guitar 2:

E)-------------------------------------------|
B)-------------------------------------------|
G)--4-4-4-4-4-4-4-4-4-4-4-4-4-4-4-4----------|
D)--4-4-4-4-4-4-4-4-4-4-4-4-4-4-4-4----------|
A)--2-2-2-2-2-2-2-2-2-2-2-2-2-2-2-2----------|
E)-------------------------------------------|

Guitar 1:

E)-------18-19------16-18----------16----------------16---|
B)---16---------16---------16---19-----16--17--19------16-|
G)--------------------------------------------------------|
D)--------------------------------------------------------|
A)--------------------------------------------------------|
E)--------------------------------------------------------|

Guitar 2:

E)-------------------------------------------|
B)-------------------------------------------|
G)--8-8-8-8-8-8-8-8-8-8-8-8-8-8-8-8----------|
D)--8-8-8-8-8-8-8-8-8-8-8-8-8-8-8-8----------|
A)--6-6-6-6-6-6-6-6-6-6-6-6-6-6-6-6----------|
E)-------------------------------------------|

Guitar 1:


E)-------18-19------16-18----------16---------------------|
B)---16---------16---------16---19-----16--17--19---16----|
G)-----------------------------------------------------16-|
D)--------------------------------------------------------|
A)--------------------------------------------------------|
E)--------------------------------------------------------|

Guitar 2:

E)-------------------------------------------|
B)-------------------------------------------|
G)-------------------------------------------|
D)--6-6-6-6-6-6-6-6-6-6-6-6-6-6-6-6----------|
A)--6-6-6-6-6-6-6-6-6-6-6-6-6-6-6-6----------|
E)--4-4-4-4-4-4-4-4-4-4-4-4-4-4-4-4----------|

Guitar 1:

E)------------------------------------------16-18-18-18-19--|
B)--------16------16-17----16-17-19---17-19-----------------|
G)--16-18------18-------------------------------------------|
D)----------------------------------------------------------|
A)----------------------------------------------------------|
E)----------------------------------------------------------|

Guitar 2:

E)-------------------------------------------|
B)-------------------------------------------|
G)--9-9-9-9-9-9-9-9-9-9-9-9-9-9-9-9----------|
D)--9-9-9-9-9-9-9-9-9-9-9-9-9-9-9-9----------|
A)--7-7-7-7-7-7-7-7-7-7-7-7-7-7-7-7----------|
E)-------------------------------------------|

Guitar 1(02:34-02:44):

E)--------18----19------18---18------18----19-----------|
B)--16-16-----------16----------16----------------------|
G)------------------------------------------------------|
D)------------------------------------------------------|
A)------------------------------------------------------|
E)------------------------------------------------------|

E)-----18-18----19-------18---18------18----19----------|
B)--19-------19----19-19---------19---------------------|
G)------------------------------------------------------|
D)------------------------------------------------------|
A)------------------------------------------------------|
E)------------------------------------------------------|

E)--------18----19--------18----18--------18----19------|
B)--16-16----16----16--16----16----16--16----16----16---|
G)------------------------------------------------------|
D)------------------------------------------------------|
A)------------------------------------------------------|
E)------------------------------------------------------|

E)--------18----19--------18----18--------18----19----19/--|
B)--17-16----16----16--17----16----17--16----16----16------|
G)---------------------------------------------------------|
D)---------------------------------------------------------|
A)---------------------------------------------------------|
E)---------------------------------------------------------|

Guitar 2(02:34-02:44):

E)-------------------------------------------|
B)-------------------------------------------|
G)--4-4-4-4-4-4-4-4-4-4-4-4-4-4-4-4----------|
D)--4-4-4-4-4-4-4-4-4-4-4-4-4-4-4-4----------|
A)--2-2-2-2-2-2-2-2-2-2-2-2-2-2-2-2----------|
E)-------------------------------------------|

E)-------------------------------------------|
B)-------------------------------------------|
G)--8-8-8-8-8-8-8-8-8-8-8-8-8-8-8-8----------|
D)--8-8-8-8-8-8-8-8-8-8-8-8-8-8-8-8----------|
A)--6-6-6-6-6-6-6-6-6-6-6-6-6-6-6-6----------|
E)-------------------------------------------|

E)-------------------------------------------|
B)-------------------------------------------|
G)-------------------------------------------|
D)--6-6-6-6-6-6-6-6-6-6-6-6-6-6-6-6----------|
A)--6-6-6-6-6-6-6-6-6-6-6-6-6-6-6-6----------|
E)--4-4-4-4-4-4-4-4-4-4-4-4-4-4-4-4----------|

E)-------------------------------------------|
B)-------------------------------------------|
G)--9-9-9-9-9-9-9-9-9-9-9-9-9-9-9-9----------|
D)--9-9-9-9-9-9-9-9-9-9-9-9-9-9-9-9----------|
A)--7-7-7-7-7-7-7-7-7-7-7-7-7-7-7-7----------|
E)-------------------------------------------|

Bridge(02:44):

Guitar 1:

E)------------------------------------------------------------------|
B)------------------------------------------------------------------|
G)------------------------------------------------------------------|
D)------------------------------------------------------------2--5--| 4x
A)------------------------------2-----------------------------2--5--|
E)---44-----2-44----2-44----2-4---4-2--44-----2-44----2-44----0--3--|

Guitar 1(03:02)

E)---------------------------------------------|
B)---------------------------------------------|
G)--4-4----8-8---------------------------------|
D)--4-4----8-8----2-2---5-5---5--5-------------| 2x
A)--2-2----6-6----2-2---5-5---5--5-------------|
E)----------------0-0---3-3---3--3-------------|

E)-----------------------------------------------|
B)-----------------------------------------------|
G)--4-4----8-8------------------------4----------|
D)--4-4----8-8----2-2---5-5---5--5----4----------|
A)--2-2----6-6----2-2---5-5---5--5----2----------|
E)----------------0-0---3-3---3--3---------------|

Refrain(03:19-03:38)

Intro2(03:38-end)

            
            
Suggest correction
Creating personal tab
Creating personal tab
You can edit any tab online and save it as your Personal.

You can edit, replace or remove any tab part or add personal notes – all changes will be seen only by you.

Personal tabs can be accessed anytime from any device, even offline.
Learn more »
Give kudos to tab author, rate the tab!
1 2 3 4 5
comments
print report bad tab
guest
You may want to rate the tab now too:
select rating
Wanna post a correction for this tab? Suggest correction