Oops, an error
Loading. Please wait.

The Setup bass

version 1
version 1

Whole song

Interactive

920 views 1 this week
1 commentread comment
1 2 3 4 5
x 3
add to favorites
×
Save as Personal and add changes to this tab that will be seen only by you. Learn more ›
×
You can save this tab as Personal to edit and correct it or add notes. All changes will be seen only by you. Learn more »
launch autoscroll
font size
0
reset
guitar tuner
edit
Autoscroll
slow
fast
+/-
esc
set tempo
stop
Author
Difficulty
-------------------------------------------------------------------------------
			     The Set-Up - Zebrahead
-------------------------------------------------------------------------------

Tabbed By : unerdanielson
e-mail:

Tuning: EADG

Intro

G|------------------|
D|------------------|
A|-----333-----555--|
E|-000-----333------| x4


Verse

G|-----------------|
D|-----------------|
A|----553322-2233--|
E|-33--------------| x3

G|------------------|
D|------------------|
A|----553322-22-22--|
E|-33---------------|


Pre-Chorus

G|------------------|
D|------------------|
A|-----333-----555--|
E|-000-----333------| x8

Chorus

G|-----------------------|
D|-2222------------------|
A|------3333------5555---|
E|-----------3333--------| x2

Intro

G|------------------|
D|------------------|
A|-----333-----555--|
E|-000-----333------| x4

Verse

G|-----------------|
D|-----------------|
A|----553322-2233--|
E|-33--------------| x3

G|------------------|
D|------------------|
A|----553322-22-22--|
E|-33---------------|


Pre-Chorus

G|------------------|
D|------------------|
A|-----333-----555--|
E|-000-----333------| x8


Chorus

G|-----------------------|
D|-2222------------------|
A|------3333------5555---|
E|-----------3333--------| x2

Intro

G|------------------|
D|------------------|
A|-----333-----555--|
E|-000-----333------| x4

Breakdown

G|-------------|
D|-2~----------|
A|----3~--5~---|
E|------3~-----| x2

G|-----------------------------------|
D|-22222222--------------------------|
A|---------33333333---------55555555-|
E|-----------------33333333----------| x2

G|-----------------------------------|
D|-----------------------------------|
A|---------33333333---------55555555-|
E|-00000000---------33333333---------| x2

G|----------|
D|----------|
A|-55555555-|
E|----------|

Outro

G|------------------|
D|------------------|
A|-----333-----555--|
E|-000-----333------| x 4

G|---|
D|---|
A|---|
E|-0-|

I haven't seen a tab anywhere else for this song, so this is my attempt. The breakdown 
be a bit off but the bass is always hardly hearable in Zebrahead songs well on the MFZB 
anyway. Enjoy a fun, fast, simple song to play


| /  slide up
| \  slide down
| h  hammer-on
| p  pull-off
| ~  vibrato
| +  harmonic
| x  Mute note
===============================================================================

            
            
Suggest correction
Creating personal tab
Creating personal tab
You can edit any tab online and save it as your Personal.

You can edit, replace or remove any tab part or add personal notes – all changes will be seen only by you.

Personal tabs can be accessed anytime from any device, even offline.
Learn more »
Give kudos to tab author, rate the tab!
1 2 3 4 5
comments
print report bad tab
1 comment total.
0 reply
xxxTheVenoomxxx 10 Nov 07, 2008 10:32 AM

love to zebrahead, one of the best zebrahead songs!!

guest
You may want to rate the tab now too:
select rating
Wanna post a correction for this tab? Suggest correction