Oops, an error
Loading. Please wait.

Bitter Heart Acoustic tab

by Zee Avi
4,232 views 3 this week
2 commentsread comments
1 2 3 4 5
2 more votes to show rating
add to favorites
×
Save as Personal and add changes to this tab that will be seen only by you. Learn more ›
×
You can save this tab as Personal to edit and correct it or add notes. All changes will be seen only by you. Learn more »
launch autoscroll
font size
0
reset
how to read this tab
guitar tuner
edit
Autoscroll
slow
fast
+/-
esc
set tempo
stop
Author
Difficulty
Hi! Waz Up?  Im Mexican so, i gonna do my best with my english.

There are 4 simple chords:  C - Am - F# - G#

OK. Here we Go.

First, Put Capo in 2nd fret.

Repeat this in verse:
    C              Am              F#             G#
e|-------------------------------------------------------4---|
B|----1--1---1--1----1--1---1--1-------------------------4---|
G|----0--0---0--0----2--2---2--2----3--3--3------5--55---5---|
D|------2------2------2-------2-----4--4--4------6--66-------|
A|---3------3------0-------0---------4-------------6---------|
E|---------------------------------2-----2-22-3-4------------|

     C                           Am
Sun rays come down as seen when they hit the ground,
                F#                        G#
Children spinning around till they fall down down down.
   C                            Am
I wait for you: it's been two hours now,
                   F#
You're still somewhere in town,
              G#
Your dinners getting cold.
   C                      Am
I rest my case you are always this late,
                  F#                   G#         
And you know how much I hate waiting around 'round 'round,

Now, in Chorus pluck this:
    F#           G#          
e|-----------------------------|
B|-----------------------------|
G|---3--3--3--3---5--5--5-4----|
D|---4--4--4--4---6--6--6-5----|
A|-----4-----4------6----------|
E|--2-----2------4-----4-3-----|

Chorus:
F#                   G#                          F#
Bitter heart, bitter heart tries to keep it all inside,
                       G#                               F#
Bitter heart, bitter heart shadows will help you try to hide,
                          G#                              F#
Bitter heart, my bitter heart is gettin' just a little fragile,
                      G#
Bitter heart, bitter heart of mine.

Verse:
And then you come and tell me the same reason as you did yesterday,
So tell me whats her name?
Doo doo da dum, doo doo da dum, doo doo doo doo doo doo da da dum dum,
da da da da dum, da da da da dum, da da da da dum.

Chorus:
Bitter heart, bitter heart tries to keep it all inside
Bitter heart, bitter heart shadows will help you try to hide,
Bitter heart, my bitter heart is just getting a little fragile

                                       C          Am      F#      G#
Bitter heart, bitter heart of mine, of mine, of mine, of mine, of mine,
   C
of mine.

End with this:
e|-------0--0--|
B|------1---1--|
G|-----0----0--|
D|----2-----2--|
A|---3------3--|
E|-------------|

Made it by_ Baldoor!/Agent47/Brandoon!(:
Like  Zee Avi on Last Call w Carson Daly
Comments? email me --- tj.28_crb@hotmail.com

            
            
Suggest correction
Creating personal tab
Creating personal tab
You can edit any tab online and save it as your Personal.

You can edit, replace or remove any tab part or add personal notes – all changes will be seen only by you.

Personal tabs can be accessed anytime from any device, even offline.
Learn more »
Give kudos to tab author, rate the tab!
1 2 3 4 5
comments
print report bad tab
2 comments total.
0 reply
AceMoney 371 Jun 09, 2010 09:45 AM

Great tab, but I think the F# and G# should just be F and G

Also, here's the trumpet solo for guitar:
e|---------------------------------------------------------------------------|
B|---------------5-5--------5-5-----------5----------------------------------|
G|--7-7-5-4-5--------7-5--------7-5-4-------7-5-4---7-5-0--------------------|
D|-----------------------7------------7-----------7-------3------------------|
A|---------------------------------------------------------------------------|
E|---------------------------------------------------------------------------|

e|---------------------------------------------------------------------------|
B|--5---------------5--------------------------------------------------------|
G|----7-5-4-5-7-7-7---7----4-7-4-3-2-----------------------------------------|
D|---------------------------------------------------------------------------|
A|---------------------------------------------------------------------------|
E|---------------------------------------------------------------------------|

0 reply
timberwo7ves 260 Sep 28, 2013 11:31 AM

+1 to AceMoney's correction.

guest
You may want to rate the tab now too:
select rating
Wanna post a correction for this tab? Suggest correction