Oops, an error
Loading. Please wait.

Noche Eterna bass

by Zenobia
58 views 1 this week
no commentswrite comment
1 2 3 4 5
2 more votes to show rating
add to favorites
×
Save as Personal and add changes to this tab that will be seen only by you. Learn more ›
×
You can save this tab as Personal to edit and correct it or add notes. All changes will be seen only by you. Learn more »
launch autoscroll
font size
0
reset
guitar tuner
edit
Autoscroll
slow
fast
+/-
esc
set tempo
stop
NOTA:

Espero y te ayude en algo esta tab.

Si necesitas una tab en especial, escríbeme o visita...


     E  E  E  E  E.  E.  E     E  E  E  E  E.  E.  E
G||-------------------------|-------------------------|
D||-------------------------|-------------------------|
A||--------------2---1------|--------------2---1------|
E||--2--2--2--2----------2--|--L--2--2--2----------2--|


  Q    E  E  E  Q    E     E  E  E  E  E  E  E  E
------------------------|--------------------------|
------------------------|--------------------------|
------------------------|--------------2--1--------|
--4----4--4--4--2----4--|--L--4--4--4--------2--0--|


  Q    E  E  E  E  E  E     E  E  E  E  E.  E.  E
-------------------------|-------------------------|
-------------------------|-------------------------|
-------------------------|--------------2---1------|
--L----0--0--0--0--0--0--|--L--0--0--0----------2--|


  Q    E  E  E  E  E  E     Q    E  E  E  E  E  E
-------------------------|-------------------------|
-------------------------|-------------------------|
-------------------------|-------------------------|
--2----2--2--2--2--2--2--|--L----2--2--2--2--2--2--|


  Q    Q    E  E  E  E     E  E  E  E  E.  E.  E
------------------------|-------------------------|
------------------------|-------------------------|
---------------1--------|--------------2---1------|
--4----4----4-----4--3--|--L--2--2--2----------2--|


  Q    E  E  E  Q    E     E  E  E  E  E  E  E  E
------------------------|--------------------------|
------------------------|--------------------------|
------------------------|--------------2--1--------|
--4----4--4--4--2----4--|--L--2--2--2--------2--0--|


  Q    E  E  E  E  E  E     E  E  E  E  E.  E.  E
-------------------------|-------------------------|
-------------------------|-------------------------|
-------------------------|--------------2---1------|
--L----0--0--0--0--0--0--|--L--2--2--2----------2--|


  Q    E  E  E  E  E  E     Q    E  E  E  E  E  E
-------------------------|-------------------------|
-------------------------|-------------------------|
-------------------------|-------------------------|
--2----2--2--2--2--2--2--|--L----2--2--2--2--2--2--|


  Q    Q    E  E  E  E     E  E  E  E  E  E  E  E
------------------------|--------------------------|
------------------------|--------------------------|
---------------1--------|--------------------------|
--4----4----4-----4--3--|-----3-----3-----3-----4--|


  Q    Q    E  E  E  E     Q    E  E  E  E  E  E
------------------------|-------------------------|
------------------------|-------------------------|
------------------------|----------------1-----2--|
--L----4----4--4--4--4--|--L----4--4--4-----------|


  Q    Q    E  E  E  E     Q    E  E  E  E  Q
------------------------|------------------------|
------------------------|------------------------|
--L----2----2--2--2--2--|--L----2--2--2--2--2----|
------------------------|------------------------|


  Q    E  E  E  E  E  E     Q    E  E  E  E  E  E
-------------------------|-------------------------|
-------------------------|-------------------------|
-------------------------|-------------------------|
--0----0--0--0--0--0--0--|--L----0--0--0--0--0--0--|


  Q    Q    Q    Q       Q    Q    H
----------------------|---------------------|
----------------------|---------------------|
--2----2----2----2----|---------------------|
----------------------|--2----2----2--------|


  Q    E  E  E  E  E  E     Q    E  E  E  E  E  E
-------------------------|-------------------------|
-------------------------|----------------1-----2--|
-------------------------|-------------------------|
--4----4--4--4--4--4--4--|--L----4--4--4-----------|


  Q    Q    E  E  E  E     Q    E  E  E  E  Q
------------------------|------------------------|
--L----2----2--2--2--2--|--L----2--2--2--2--2----|
------------------------|------------------------|
------------------------|------------------------|


  Q    Q    E  E  Q       Q    Q    E  E  Q
-----------------------|-----------------------|
-----------------------|--1----1----1--1--1----|
--2----2----2--2--2----|-----------------------|
-----------------------|-----------------------|


  Q    Q    E  E  Q       Q    Q    E  E  Q
-----------------------|-----------------------|
-----------------------|-----------------------|
-----------------------|-----------------------|
--2----2----2--2--2----|--3----3----3--3--3----|


  Q    E  E  E  E  E  E     Q    E  E  E  E  E  E
-------------------------|-------------------------|
-------------------------|-------------------------|
-------------------------|-------------------------|
--0----0--0--0--0--0--0--|--L----0--0--0--2-----4--|


  Q    E  E  E  E  E  E     E  E  E  E  E  E  E  E
-------------------------|--------------------------|
-------------------------|--------------------------|
-------------------------|--------------------------|
--L----4--4--4--4--4--4--|--4--4--4--4--4--4--4--0--|


  Q    E  E  E  E  E  E     Q    E  E  E  E  E  E
-------------------------|-------------------------|
-------------------------|-------------------------|
-------------------------|-------------------------|
--L----0--0--0--0--0--0--|--L----0--0--0--0--0--0--|


  Q    Q    Q    Q       Q    Q    H
----------------------|---------------------|
----------------------|---------------------|
--2----2----2----2----|---------------------|
----------------------|--2----2----2--------|


  Q    E  E  E  E  E  E     E  E  E  E  E  E  E  E
-------------------------|--------------------------|
-------------------------|--------------------------|
-------------------------|--------------------------|
--0----0--0--0--0-----0--|-----0-----0-----2-----4--|


  Q    E  E  E  E  E  E     E  E  E  E  E  E  E  E
-------------------------|--------------------------|
-------------------------|--------------------------|
-------------------------|--------------------------|
--L----4--4--4--2-----4--|-----2-----4-----2-----0--|


  Q    E  E  E  E  E  E     Q    E  E  E  E  Q
-------------------------|------------------------|
-------------------------|------------------------|
-------------------------|------------------------|
--L----0--0--0--0--0--4--|--L----4--4--4--4--4----|


  E  E  E  E  E  E  E  E     E  E  E  E  E.  E.  E
--------------------------|-------------------------|
--------------------------|-------------------------|
--------------------------|--------------2---1------|
--2--2--2--2--2--2--2--2--|--2--2--2--2----------2--|


  Q    E  E  E  Q    E     E  E  E  E  E  E  E  E
------------------------|--------------------------|
------------------------|--------------------------|
------------------------|--------------2--1--------|
--4----4--4--4--2----4--|--L--2--2--2--------2--0--|


  Q    E  E  E  E  E  E     E  E  E  E  E.  E.  E
-------------------------|-------------------------|
-------------------------|-------------------------|
-------------------------|--------------2---1------|
--L----0--0--0--0--0--0--|--L--2--2--2----------2--|


  Q    E  E  E  E  E  E     Q    E  E  E  E  E  E
-------------------------|-------------------------|
-------------------------|-------------------------|
-------------------------|-------------------------|
--2----2--2--2--2--2--2--|--L----2--2--2--2--2--2--|


  Q    Q    E  E  E  E     E  E  E  E  E.  E.  E
------------------------|-------------------------|
------------------------|-------------------------|
---------------1--------|--------------2---1------|
--4----4----4-----4--3--|--L--2--2--2----------2--|


  Q    E  E  E  Q    E     E  E  E  E  E  E  E  E
------------------------|--------------------------|
------------------------|--------------------------|
------------------------|--------------2--1--------|
--4----4--4--4--2----4--|--L--2--2--2--------2--0--|


  Q    E  E  E  E  E  E     E  E  E  E  E.  E.  E
-------------------------|-------------------------|
-------------------------|-------------------------|
-------------------------|--------------2---1------|
--L----0--0--0--0--0--0--|--L--2--2--2----------2--|


  Q    E  E  E  E  E  E     Q    E  E  E  E  E  E
-------------------------|-------------------------|
-------------------------|-------------------------|
-------------------------|-------------------------|
--2----2--2--2--2--2--2--|--L----2--2--2--2--2--2--|


  Q    Q    E  E  E  E     E  E  E  E  E  E  E  E
------------------------|--------------------------|
------------------------|--------------------------|
---------------1--------|--------------------------|
--4----4----4-----4--3--|-----3-----3-----3-----4--|


  Q    E  E  E  Q    E     E  E  E  E  E  E  E  E
------------------------|--------------------------|
------------------------|--------------------------|
------------------------|--------------2--1--------|
--L----4--4--4--2----4--|--L--2--2--2--------2--0--|


  Q    E  E  E  E  E  E     E  E  E  E  E.  E.  E
-------------------------|-------------------------|
-------------------------|-------------------------|
-------------------------|--------------2---1------|
--L----0--0--0--0--0--0--|--L--2--2--2----------2--|


  Q    E  E  E  E  E  E     Q    E  E  E  E  E  E
-------------------------|-------------------------|
-------------------------|-------------------------|
-------------------------|-------------------------|
--2----2--2--2--2--2--2--|--L----2--2--2--2--2--2--|


  Q    Q    E  E  E  E     E  E  E  E  E.  E.  E
------------------------|-------------------------|
------------------------|-------------------------|
---------------1--------|--------------2---1------|
--4----4----4-----4--3--|--L--2--2--2----------2--|


  Q    E  E  E  Q    E     E  E  E  E  E  E  E  E
------------------------|--------------------------|
------------------------|--------------------------|
------------------------|--------------2--1--------|
--4----4--4--4--2----4--|--L--2--2--2--------2--0--|


  Q    E  E  E  E  E  E     E  E  E  E  E.  E.  E
-------------------------|-------------------------|
-------------------------|-------------------------|
-------------------------|--------------2---1------|
--L----0--0--0--0--0--0--|--L--2--2--2----------2--|


  Q    E  E  E  E  E  E     Q    E  E  E  E  E  E
-------------------------|-------------------------|
-------------------------|-------------------------|
-------------------------|-------------------------|
--2----2--2--2--2--2--2--|--L----2--2--2--2--2--2--|


  Q    Q    E  E  E  E     E  E  E  E  E  E  E  E
------------------------|--------------------------|
------------------------|--------------------------|
---------------1--------|--------------------------|
--4----4----4-----4--3--|-----3-----3-----3-----4--|


  Q    Q    E  E  E  E     Q    E  E  E  E  E  E
------------------------|-------------------------|
------------------------|-------------------------|
------------------------|----------------1-----2--|
--L----4----4--4--4--4--|--L----4--4--4-----------|


  Q    Q    E  E  E  E     Q    E  E  E  E  Q
------------------------|------------------------|
------------------------|------------------------|
--L----2----2--2--2--2--|--L----2--2--2--2--2----|
------------------------|------------------------|


  Q    E  E  E  E  E  E     Q    E  E  E  E  E  E
-------------------------|-------------------------|
-------------------------|-------------------------|
-------------------------|-------------------------|
--0----0--0--0--0--0--0--|--L----0--0--0--0--0--0--|


  Q    Q    E  E  Q       Q    Q    E  E  Q
-----------------------|-----------------------|
-----------------------|-----------------------|
--2----2----2--2--2----|-----------------------|
-----------------------|--2----2----2--2--2----|


  Q    E  E  E  E  E  E     Q    E  E  E  E  E  E
-------------------------|-------------------------|
-------------------------|----------------1-----2--|
-------------------------|-------------------------|
--4----4--4--4--4--4--4--|--L----4--4--4-----------|


  Q    Q    E  E  E  E     Q    E  E  E  E  Q
------------------------|------------------------|
--L----2----2--2--2--2--|--L----2--2--2--2--2----|
------------------------|------------------------|
------------------------|------------------------|


  Q    Q    E  E  Q       Q    Q    E  E  Q
-----------------------|-----------------------|
-----------------------|--1----1----1--1--1----|
--2----2----2--2--2----|-----------------------|
-----------------------|-----------------------|


  Q    Q    E  E  Q       Q    Q    E  E  Q
-----------------------|-----------------------|
-----------------------|-----------------------|
-----------------------|-----------------------|
--2----2----2--2--2----|--3----3----3--3--3----|


  Q    E  E  E  E  E  E     Q    E  E  E  E  E  E
-------------------------|-------------------------|
-------------------------|-------------------------|
-------------------------|-------------------------|
--0----0--0--0--0--0--0--|--L----0--0--0--2-----4--|


  Q    E  E  E  E  E  E     E  E  E  E  E  E  E  E
-------------------------|--------------------------|
-------------------------|--------------------------|
-------------------------|--------------------------|
--L----4--4--4--4--4--4--|--4--4--4--4--4--4--4--0--|


  Q    E  E  E  E  E  E     Q    E  E  E  E  E  E
-------------------------|-------------------------|
-------------------------|-------------------------|
-------------------------|-------------------------|
--L----0--0--0--0--0--0--|--L----0--0--0--0--0--0--|


  Q    Q    Q    Q       Q    Q    H
----------------------|---------------------|
----------------------|---------------------|
--2----2----2----2----|---------------------|
----------------------|--2----2----2--------|


  Q    E  E  E  E  E  E     E  E  E  E  E  E  E  E
-------------------------|--------------------------|
-------------------------|--------------------------|
-------------------------|--------------------------|
--0----0--0--0--0-----0--|-----0-----0-----2-----4--|


  Q    E  E  E  E  E  E     E  E  E  E  E  E  E  E
-------------------------|--------------------------|
-------------------------|--------------------------|
-------------------------|--------------------------|
--L----4--4--4--2-----4--|-----2-----4-----2-----0--|


  Q    E  E  E  E  E  E     Q    E  E  E  E  Q
-------------------------|------------------------|
-------------------------|------------------------|
-------------------------|------------------------|
--L----0--0--0--0--0--4--|--L----4--4--4--4--4----|


  E  E  E  E  E  E  E  E     E  E  E  E  E.  E.  E
--------------------------|-------------------------|
--------------------------|-------------------------|
--------------------------|--------------2---1------|
--2--2--2--2--2--2--2--2--|--2--2--2--2----------2--|


  Q    E  E  E  Q    E     E  E  E  E  E  E  E  E
------------------------|--------------------------|
------------------------|--------------------------|
------------------------|--------------2--1--------|
--4----4--4--4--2----4--|--L--2--2--2--------2--0--|


  Q    E  E  E  E  E  E     E  E  E  E  E.  E.  E
-------------------------|-------------------------|
-------------------------|-------------------------|
-------------------------|--------------2---1------|
--L----0--0--0--0--0--0--|--L--2--2--2----------2--|


  Q    E  E  E  E  E  E     Q    E  E  E  E  E  E
-------------------------|-------------------------|
-------------------------|-------------------------|
-------------------------|-------------------------|
--2----2--2--2--2--2--2--|--L----2--2--2--2--2--2--|


  Q    Q    E  E  E  E     E  E  E  E  E.  E.  E
------------------------|-------------------------|
------------------------|-------------------------|
---------------1--------|--------------2---1------|
--4----4----4-----4--3--|--L--2--2--2----------2--|


  Q    E  E  E  Q    E     E  E  E  E  E  E  E  E
------------------------|--------------------------|
------------------------|--------------------------|
------------------------|--------------2--1--------|
--4----4--4--4--2----4--|--L--2--2--2--------2--0--|


  Q    E  E  E  E  E  E     E  E  E  E  E.  E.  E
-------------------------|-------------------------|
-------------------------|-------------------------|
-------------------------|--------------2---1------|
--L----0--0--0--0--0--0--|--L--2--2--2----------2--|


  Q    E  E  E  E  E  E     Q    E  E  E  E  E  E
-------------------------|-------------------------|
-------------------------|-------------------------|
-------------------------|-------------------------|
--2----2--2--2--2--2--2--|--L----2--2--2--2--2--2--|


  Q    Q    E  E  E  E     E  E  E  E  E  E  E  E
------------------------|--------------------------|
------------------------|--------------------------|
---------------1--------|--------------------------|
--4----4----4-----4--3--|-----3-----3-----3-----4--|


  Q    E  E  E  E  E  E     E  E  E  E  E  E  E  E
-------------------------|--------------------------|
-------------------------|--------------------------|
-------------------------|-----------------1-----2--|
--L----4--4--4--4--4--4--|--4--4--4--4--4-----------|


  E  E  E  E  E  E  E  E     Q    E  E  E  E  E  E
--------------------------|-------------------------|
--------------------------|-------------------------|
--L--2--2--2--2--1--------|-------------------------|
-----------------------2--|--L----2--2--2--0-----4--|


  Q    E  E  E  E  E  E     E  E  E  E  E  E  E  E
-------------------------|--------------------------|
-------------------------|--------------------------|
-------------------------|-----------------1-----2--|
--L----4--4--4--4--4--4--|--4--4--4--4--4-----------|


  H        E  E  E  E     E  E  E  E  E  Q     E
-----------------------|--------------------------|
-----------------------|--------------------------|
--L--------2--1-----4--|-----3-----4-----3-------|
-----------------------|-----------------------4--|


  Q    E  E  E  E  E  E     E  E  E  E  E  E  E  E
-------------------------|--------------------------|
-------------------------|--------------------------|
-------------------------|-----------------1-----2--|
--L----4--4--4--4--4--4--|--4--4--4--4--4-----------|


  E  E  E  E  E  E  E  E     Q    E  E  E  E  E  E
--------------------------|-------------------------|
--------------------------|-------------------------|
--L--2--2--2--2--1--------|-------------------------|
-----------------------2--|--L----2--2--2--0-----4--|


  Q    E  E  E  E  E  E     E  E  E  E  E  E  E  E
-------------------------|--------------------------|
-------------------------|--------------------------|
-------------------------|-----------------1-----2--|
--L----4--4--4--4--4--4--|--4--4--4--4--4-----------|


  H        E  E  E  E     E  E  E  E  E  Q     E
-----------------------|--------------------------|
-----------------------|--------------------------|
--L--------2--1-----4--|-----3-----4-----3-------|
-----------------------|-----------------------0--|


  Q    E  E  E  E  E  E     Q    E  E  E  E  E  E
-------------------------|-------------------------|
-------------------------|-------------------------|
-------------------------|-------------------------|
--L----0--0--0--0--0--0--|--L----0--0--0--2-----4--|


  Q    E  E  E  E  E  E     E  E  E  E  E  E  E  E
-------------------------|--------------------------|
-------------------------|--------------------------|
-------------------------|--------------------------|
--L----4--4--4--4--4--4--|--4--4--4--4--4--4--4--0--|


  Q    E  E  E  E  E  E     Q    E  E  E  E  E  E
-------------------------|-------------------------|
-------------------------|-------------------------|
-------------------------|-------------------------|
--L----0--0--0--0--0--0--|--L----0--0--0--0--0--0--|


  Q    Q    E  E  Q       Q    Q    E  E  Q
-----------------------|-----------------------|
-----------------------|-----------------------|
--2----2----2--2--2----|-----------------------|
-----------------------|--2----2----2--2--2----|


  Q    E  E  E  E  E  E     E  E  E  E  E  E  E  E
-------------------------|--------------------------|
-------------------------|--------------------------|
-------------------------|--------------------------|
--0----0--0--0--0-----0--|-----0-----0-----2-----4--|


  Q    E  E  E  E  E  E     E  E  E  E  E  E  E  E
-------------------------|--------------------------|
-------------------------|--------------------------|
-------------------------|--------------------------|
--L----4--4--4--2-----4--|-----2-----4-----2-----0--|


  Q    E  E  E  E  E  E     Q    E  E  E  E  Q
-------------------------|------------------------|
-------------------------|------------------------|
-------------------------|------------------------|
--L----0--0--0--0--0--4--|--L----4--4--4--4--4----|


  E  E  E  E  E  E  E  E     E  E  E  E  E.  E.  E
--------------------------|-------------------------|
--------------------------|-------------------------|
--------------------------|--------------2---1------|
--2--2--2--2--2--2--2--2--|--2--2--2--2----------2--|


  Q    E  E  E  Q    E     E  E  E  E  E  E  E  E
------------------------|--------------------------|
------------------------|--------------------------|
------------------------|--------------2--1--------|
--4----4--4--4--2----4--|--L--2--2--2--------2--0--|


  Q    E  E  E  E  E  E     E  E  E  E  E.  E.  E
-------------------------|-------------------------|
-------------------------|-------------------------|
-------------------------|--------------2---1------|
--L----0--0--0--0--0--0--|--L--2--2--2----------2--|


  Q    E  E  E  E  E  E     Q    E  E  E  E  E  E
-------------------------|-------------------------|
-------------------------|-------------------------|
-------------------------|-------------------------|
--2----2--2--2--2--2--2--|--L----2--2--2--2--2--2--|


  Q    Q    E  E  E  E     E  E  E  E  E.  E.  E
------------------------|-------------------------|
------------------------|-------------------------|
---------------1--------|--------------2---1------|
--4----4----4-----4--3--|--L--2--2--2----------2--|


  Q    E  E  E  Q    E     E  E  E  E  E  E  E  E
------------------------|--------------------------|
------------------------|--------------------------|
------------------------|--------------2--1--------|
--4----4--4--4--2----4--|--L--2--2--2--------2--0--|


  Q    E  E  E  E  E  E     E  E  E  E  E.  E.  E
-------------------------|-------------------------|
-------------------------|-------------------------|
-------------------------|--------------2---1------|
--L----0--0--0--0--0--0--|--L--2--2--2----------2--|


  Q    E  E  E  E  E  E     Q    E  E  E  E  E  E
-------------------------|-------------------------|
-------------------------|-------------------------|
-------------------------|-------------------------|
--2----2--2--2--2--2--2--|--L----2--2--2--2--2--2--|


  Q    Q    E  E  E  E     E  E  E  E  E.  E.  E
------------------------|-------------------------|
------------------------|-------------------------|
---------------1--------|--------------2---1------|
--4----4----4-----4--3--|-----2--2--2----------2--|


  Q    E  E  E  Q    E     E  E  E  E  E  E  E  E
------------------------|--------------------------|
------------------------|--------------------------|
------------------------|--------------2--1--------|
--4----4--4--4--2----4--|--L--2--2--2--------2--0--|


  Q    E  E  E  E  E  E     E  E  E  E  E.  E.  E
-------------------------|-------------------------|
-------------------------|-------------------------|
-------------------------|--------------2---1------|
--L----0--0--0--0--0--0--|--L--2--2--2----------2--|


  Q    E  E  E  E  E  E     Q    E  E  E  E  E  E
-------------------------|-------------------------|
-------------------------|-------------------------|
-------------------------|-------------------------|
--2----2--2--2--2--2--2--|--L----2--2--2--2--2--2--|


  Q    Q    E  E  E  E     E  E  E  E  E.  E.  E
------------------------|-------------------------|
------------------------|-------------------------|
---------------1--------|--------------2---1------|
--4----4----4-----4--3--|--L--2--2--2----------2--|


  Q    E  E  E  Q    E     E  E  E  E  E  E  E  E
------------------------|--------------------------|
------------------------|--------------------------|
------------------------|--------------2--1--------|
--4----4--4--4--2----4--|--L--2--2--2--------2--0--|


  Q    E  E  E  E  E  E     E  E  E  E  E.  E.  E
-------------------------|-------------------------|
-------------------------|-------------------------|
-------------------------|--------------2---1------|
--L----0--0--0--0--0--0--|--L--2--2--2----------2--|


  Q    E  E  E  E  E  E     Q    E  E  E  E  E  E
-------------------------|-------------------------|
-------------------------|-------------------------|
-------------------------|-------------------------|
--2----2--2--2--2--2--2--|--L----2--2--2--2--2--2--|


  Q    Q    E  E  E  E     E  E  E  E  E  E  E  E
------------------------|--------------------------||
------------------------|--------------------------||
---------------1--------|--------------------------||
--4----4----4-----4--3--|-----3-----3-----3-----4--||


Duration Legend
---------------
W - whole
H - half
Q - quarter
E - 8th
S - 16th
T - 32nd
X - 64th
. - note dotted
|-n-|  - n-tuplets


Tablature Legend
----------------
L - tied note
x - dead note
g - grace note
(n) - ghost note
> - accentuded note
NH - natural harmonic
AH - artificial harmonic
TH - tapped harmonic
SH - semi harmonic
PH - pitch harmonic
h - hammer on
p - pull off
b - bend
br - bendRelease
pb - preBend
pbr - preBendRelease
brb - bendReleaseBend
n/ - tremolo bar dip
n - tremolo bar dive
-/n - tremolo bar Release up
/n - tremolo bar inverted dip
/n - tremolo bar return
-n - tremolo bar Release down
S - shift slide
s - legato slide
/ -  slide into from below or out of upwards
 -  slide into from above or out of downwards
~ - vibrato
W - wide vibrato
tr - trill
TP - tremolo picking
T - tapping
S - slap
P - pop
< - fade in
^ - brush up
v - brush down

            
            
Suggest correction
Creating personal tab
Creating personal tab
You can edit any tab online and save it as your Personal.

You can edit, replace or remove any tab part or add personal notes – all changes will be seen only by you.

Personal tabs can be accessed anytime from any device, even offline.
Learn more »
Give kudos to tab author, rate the tab!
1 2 3 4 5
comments
print report bad tab
guest
Wanna post a correction for this tab? Suggest correction