Oops, an error
Loading. Please wait.

One Minute To Midnight solo tab

by Zhu
199 views 1 this week
no commentswrite comment
1 2 3 4 5
3 more votes to show rating
add to favorites
×
Save as Personal and add changes to this tab that will be seen only by you. Learn more ›
×
You can save this tab as Personal to edit and correct it or add notes. All changes will be seen only by you. Learn more »
launch autoscroll
font size
0
reset
how to read this tab
guitar tuner
edit
Autoscroll
slow
fast
+/-
esc
set tempo
stop
Author
Difficulty
About this tab version
This version is short and simple, it doesn't need every part in detail because its the same three chords all the way through. Was this info helpful? Yes No
[Intro & Outro]
  Ebm      Abm        
e|-6--------4--------------------------------------------------------------------|
B|-------------------------------------------------------------------------------|
G|--8-8------4-4-----------------------------------------------------------------| x3
D|-------------------------------------------------------------------------------|
A|---6-6------6-6----------------------------------------------------------------|
E|-------------------------------------------------------------------------------|


[Verse]
Ebm Abm [play these two and end on another Abm]
C#7 "Tell me how you got somebody"
listen carefully because sometimes it stops dead on Abm.
Same chords are all the way through.
The little picks inbetween chords are;
        
e|-------------------------------------------------------------------------------|
B|-------------------------------------------------------------------------------|
G|--------15x6-------------------------------------------------------------------| 
D|-------------------------------------------------------------------------------|
A|-------------------------------------------------------------------------------|
E|-------------------------------------------------------------------------------|

[End Solo]
e|-----------------------------------------------------------------------------------------------|
B|-/9-9-9-7--b7/9--7--------/11------------------------------------------------------------------|
G|---------8------8-8~-----------/8~-------------------------------------------------------------| 
D|------------------------------------6p4--------------------------------------------------------|
A|---------------------------------------6-------------------------------------------------------|
E|-----------------------------------------------------------------------------------------------|


 

************************************

| x  Dead note
| b  Bend
| /  Slide up
| ~  Vibrato
| p  Pull-off

************************************

            
            
Suggest correction
Creating personal tab
Creating personal tab
You can edit any tab online and save it as your Personal.

You can edit, replace or remove any tab part or add personal notes – all changes will be seen only by you.

Personal tabs can be accessed anytime from any device, even offline.
Learn more »
Give kudos to tab author, rate the tab!
1 2 3 4 5
comments
print report bad tab
guest
You may want to rate the tab now too:
select rating
Wanna post a correction for this tab? Suggest correction