Oops, an error
Loading. Please wait.

Bad Intentions solo tab

by Zomboy
40 views 3 this week
no commentswrite comment
1 2 3 4 5
3 more votes to show rating
add to favorites
×
Save as Personal and add changes to this tab that will be seen only by you. Learn more ›
×
You can save this tab as Personal to edit and correct it or add notes. All changes will be seen only by you. Learn more »
launch autoscroll
font size
0
reset
how to read this tab
guitar tuner
edit
Autoscroll
slow
fast
+/-
esc
set tempo
stop
People usually just power chord their way through this solo.
If anyone out there can play this at full speed, put it on youtube and let me know!
I'd love to hear someone cover the song with this part too.

This tab is pretty solid so if it sounds weird to you then try to play it slowed down to
at least 50% and give it a try.

e|--------------12-10---------10-------------------------------8----7-5---------------------5-|
B|------------8-------12---13----12-------10-8-10-12-10-8---------------5/12\8-----7-8-7-5----|
G|--9-----7-9------------9--------------------------------7-9-----5---------------------------|
D|--------------------------------------------------------------------------------------------|
A|--------------------------------------------------------------------------------------------|
E|--------------------------------------------------------------------------------------------|

These first 5 notes below are weird but if you play it at 50% speed then it sounds like it.
(its hard to tell with it all fuzzed together)
And at 100% speed, you could probably even drop that first note (5th fret) all together.

e|-------------------------7p0-10-12-15---14-12-----|
B|--------------------8-10----------------------15--|
G|----------7p0---7-9-------------------------------|
D|---5/7p0------------------------------------------|
A|--------------------------------------------------|
E|--------------------------------------------------|


e|-----------------------------------------------------|
B|---13----15-12----10----12-8-----7p5h8p5-8-7-5-7-8-5-|
G|------12-------------12------------------------------|
D|-----------------------------------------------------|
A|-----------------------------------------------------|
E|-----------------------------------------------------|


e|--------------------10-12-----14-15-17-----15----14-|
B|---------8-10----12---------------------------------|
G|---7---9--------------------------------14----14----|
D|----------------------------------------------------|
A|----------------------------------------------------|
E|----------------------------------------------------|


e|------------12----------12----15----12-|
B|--12h14h15-----12----15----12----15----|
G|---------------------------------------|
D|-----------------14--------------------|
A|---------------------------------------|
E|---------------------------------------|

Second time around, only a couple notes changed. I put asterisks (*) above the changed notes.

                                                                                            *
e|--------------12-10---------10-------------------------------8----7-5-----------------------|
B|------------8-------12---13----12-------10-8-10-12-10-8---------------5/12\8-----7-8-7-5----|
G|--9-----7-9------------9--------------------------------7-9-----5-------------------------7-|
D|--------------------------------------------------------------------------------------------|
A|--------------------------------------------------------------------------------------------|
E|--------------------------------------------------------------------------------------------|


e|-------------------------7p0-10-12-15---14-12-----|
B|--------------------8-10----------------------15--|
G|----------7p0---7-9-------------------------------|
D|---5/7p0------------------------------------------|
A|--------------------------------------------------|
E|--------------------------------------------------|


e|-----------------------------------------------------|
B|---13----15-12----10----12-8-----7p5h8p5-8-7-5-7-8-5-|
G|------12-------------12------------------------------|
D|-----------------------------------------------------|
A|-----------------------------------------------------|
E|-----------------------------------------------------|


                                                   *
e|--------------------10-12-----14-15-17-----15----19-|
B|---------8-10----12---------------------------------|
G|---7---9--------------------------------14----14----|
D|----------------------------------------------------|
A|----------------------------------------------------|
E|----------------------------------------------------|

                             *  *  *  *
e|------------12----------12-14-15-19-24-|
B|--12h14h15-----12----15----------------|
G|---------------------------------------|
D|-----------------14--------------------|
A|---------------------------------------|
E|---------------------------------------|

 
************************************

| /  Slide up
| \  Slide down
| p  Pull-off
| h  Hammer-on

************************************

            
            
Suggest correction
Creating personal tab
Creating personal tab
You can edit any tab online and save it as your Personal.

You can edit, replace or remove any tab part or add personal notes – all changes will be seen only by you.

Personal tabs can be accessed anytime from any device, even offline.
Learn more »
Give kudos to tab author, rate the tab!
1 2 3 4 5
comments
print report bad tab
guest
You may want to rate the tab now too:
select rating
Wanna post a correction for this tab? Suggest correction