Oops, an error
Loading. Please wait.

Vieja Soledad tab

version 2
version 2

Whole song

by Zona 7
28 views 1 this week
no commentswrite comment
1 2 3 4 5
3 more votes to show rating
add to favorites
×
Save as Personal and add changes to this tab that will be seen only by you. Learn more ›
×
You can save this tab as Personal to edit and correct it or add notes. All changes will be seen only by you. Learn more »
launch autoscroll
font size
0
reset
how to read this tab
guitar tuner
edit
Autoscroll
slow
fast
+/-
esc
set tempo
stop
19/08/10
Bueno,
Les mando mi 1º transcripción
pzz es la original
espero les guste
si les gusta pzz mi e-mail es
christ_ch94@hotmail...
--INTRO--
"SON DOS GUITARS, UNA ACOMPAÑA Y LA OTRA PUNTEA"


GITR 1: Em              C               Bm-A
GITR 2
        ----------------------------
        -12-12-12-7-7-7-8-8-8-------
        ---------------------7-7-7-7             X2
        ----------------------------
        ----------------------------
 DESPUES

        Em              C             Bm          A
        -------------------------------------------------
        -12-12-12-7-7-7-8-8-8----------------------------
        ---------------------7-7-7-7--4-4-4-4-5-4-2-2-2-2
        -------------------------------------------------
        -------------------------------------------------
ESTO LLEVA PALM MUTE

Em         D
Vieja soledad
           C
encuentro una ves mas
   D
no quiero verte
Em            D
tocas en mi puerta
       C
sin invitacion
   D            Em
arranca e vete ¡YAAAAAAAAAAA! (AKI REPITE LO MISM DEL COMIENZO oK)


CORO
Em        D
Veo k la luz
           C                  Bm          A
penetra en esta oscuridad (G--4-4-4-4-5-4-2-2-2-2)
                                          y empiezo
Em            D
A sentir la realidad
  C            D
y el calor de tu presencia


Te entregue mi tiempo
y mis iluciones ¡no comprendo!

olas que volaron EN el viento
y no volveran ¡JAMAAAAAAAAAAS

CORO...

INTERMEDIO

(esta tablatura la hice en la guitar, pero relmente es un string.

 C              Bm           D   A
-8-8-8-8-8-8-8--7-7-7-7-7-7-10(X12)
----------------------------------      esto x2
----------------------------------
----------------------------------
 C      Bm   A
-8(x12)-5-5-7-
--------------
--------------
--------2-2-4-

--CORO--

FINAL

      Em              C             Bm          A
     -------------------------------------------------
     -12-12-12-7-7-7-8-8-8----------------------------
     ---------------------7-7-7-7--4-4-4-4-5-4-2-2-2-2 x2
     -------------------------------------------------
     -------------------------------------------------

     ----------
     ----------
     ----------
     -2-2-2-2--
     -------2--
     -------0--

            
            
Suggest correction
Creating personal tab
Creating personal tab
You can edit any tab online and save it as your Personal.

You can edit, replace or remove any tab part or add personal notes – all changes will be seen only by you.

Personal tabs can be accessed anytime from any device, even offline.
Learn more »
Give kudos to tab author, rate the tab!
1 2 3 4 5
comments
print report bad tab
guest
Wanna post a correction for this tab? Suggest correction