Oops, an error
Loading. Please wait.

Fumando Vamos A Casa bass

980 views 9 this week
no commentswrite comment
1 2 3 4 5
3 more votes to show rating
add to favorites
×
Save as Personal and add changes to this tab that will be seen only by you. Learn more ›
×
You can save this tab as Personal to edit and correct it or add notes. All changes will be seen only by you. Learn more »
launch autoscroll
font size
0
reset
guitar tuner
edit
Autoscroll
slow
fast
+/-
esc
set tempo
stop
Intro
   |   |   |   |
G||----------------|
D||----------------|    ((solo piano entra))
A||----------------|
E||----------------|


Coro:

Abm                 Gb
Fumando vamos a casa
Gb7         Abm                     Gb      AQUI EL BAJO NO SUENA
Cultivando weed quemando buena ganja
Gb7        Abm                    Gb
Esta es la alianza Ras Tafari avanza
Gb7         Abm                 Gb
Caminando a zion I&I no descansa


Entra el bajo:

 Estrofa1:

      Abm          Gb  Abm          Gb  Abm          Gb   Abm          Gb
   |   |            |   |            |   |            |   |            |
  G||----------------|----------------|----------------|----------------|
  D||----------------|----------------|----------------|----------------|
  A||----------4--24-|----------4--24-|----------4--24-|----------4--24-|
  E||-4-47-6-4--2----|-4-47-6-4--2----|-4-47-6-4--2----|-4-47-6-4--2----|

Fumando vamos a casa...

      Abm          Gb  Abm          Gb  Abm          Gb   Abm          Gb
   |   |            |   |            |   |            |   |            |
  G||----------------|----------------|----------------|----------------|
  D||----------------|----------------|----------------|----------------|
  A||----------4--24-|----------4--24-|----------4--24-|----------4--24-|
  E||-4-47-6-4--2----|-4-47-6-4--2----|-4-47-6-4--2----|-4-47-6-4--2----|

Temprano por la mañana


      Abm          Gb  Abm          Gb  Abm          Gb   Abm          Gb
   |   |            |   |            |   |            |   |            |
  G||----------------|----------------|----------------|----------------|
  D||----------------|----------------|----------------|----------------|
  A||----------4--24-|----------4--24-|----------4--24-|----------4--24-|
  E||-4-47-6-4--2----|-4-47-6-4--2----|-4-47-6-4--2----|-4-47-6-4--2----|


Es nuestra siembra que espera
      Abm          Gb  Abm          Gb  Abm          Gb   Abm          Gb
   |   |            |   |            |   |            |   |            |
  G||----------------|----------------|----------------|----------------|
  D||----------------|----------------|----------------|----------------|
  A||----------4--24-|----------4--24-|----------4--24-|----------4--24-|
  E||-4-47-6-4--2----|-4-47-6-4--2----|-4-47-6-4--2----|-4-47-6-4--2----|

Agobio de este sistema

   AQUI SE REPITE TODO IGUAL


Compara unguento sagrado
Y humo del más elevado
Sendero eterno y sagrado
Eterno amor elevado.

Encontré el fruto real que me llevo a la conexión total
Vivo en desacuerdo con babilón y no me va mal
Se me enseño a decir
Las cosas por su nombre
Y eso es lo que ago "Si"
Tu sabes que hablo y hablo
Pero con base hermanos siempre
Le pregunto a la gente que siente
Ponen caras cuando la ganja se prende
Es privación del ser consecuentes
Con la creación del ser supremo
Ganja es para el cuerpo ambos lo sabemos.

Coro
Fumando vamos a casa
Cultivando weed quemando buena ganja
Esta es la alianza rastafari avanza
Caminando a zion I&I no descansa

Y en congregación
Transparente somos yo y yo en el corazón
Dos mentes en acción
Nos quedamos en tan solo la intención
Libera tu alma
Solo de ti depende encontrar la calma
Respeta la ganja la ignorancia es tanta
Tómale el peso a las palabras
Marihuana es una planta
Que por el único dios fue creada
El mismo que a ti te creo hizo la hierba
Pa que tu meditación sea elevada
Esencia de tres en uno en la llama sagrada
En I&I va plasmada.
Conexión demasiado elevada.

Ven vamos cultiva la tierra
Ey ven cultiva tu templo
Eleva tu corazón con las manos
Trabajando para el creador
Quien perdona le error
Quien te da la salvación
Haile Selassie es nuestro creador¡¡
Emperatris manan, madre de la creación
Rey alfa, Reina omega eterna es su bendición¡¡
El amor¡ el amor¡ Eterno el amor¡ El amor¡
Eterno el amor¡ El amor¡ Eterno El amor¡ El amor¡
JHA LOVE¡¡, JHA LOVE¡¡, JHA LOVE¡¡

Fumando vamos a casa
Cultivando weed quemando buena ganja
Esta es la alianza rastafari avanza
Caminando a zion I&I no descansa

Fumando vamos a casa
Cultivando amor cosechare esperanza
Esta es la alianza, rastafari avanza
Caminando a zion I&I no descansa


AQUÍ TERMINA SOLO EL PIANO.

Desde Ecuador con mucho gusto para todos los rasta faryyy..... que les guste.


TERMINAR QUE AL FINAL TERMINA SOLO EL PIANO.

            
            
Suggest correction
Creating personal tab
Creating personal tab
You can edit any tab online and save it as your Personal.

You can edit, replace or remove any tab part or add personal notes – all changes will be seen only by you.

Personal tabs can be accessed anytime from any device, even offline.
Learn more »
Give kudos to tab author, rate the tab!
1 2 3 4 5
comments
print report bad tab
guest
Wanna post a correction for this tab? Suggest correction