Oops, an error
Loading. Please wait.

Pandemic Assault tab

by Zonaria
93 views 3 this week
no commentswrite comment
1 2 3 4 5
3 more votes to show rating
add to favorites
×
Save as Personal and add changes to this tab that will be seen only by you. Learn more ›
×
You can save this tab as Personal to edit and correct it or add notes. All changes will be seen only by you. Learn more »
launch autoscroll
font size
0
reset
how to read this tab
guitar tuner
edit
Autoscroll
slow
fast
+/-
esc
set tempo
stop
-----------------------------------------------------------------------------
                             PANDEMIC ASSAULT - Zonaria
-----------------------------------------------------------------------------
Tabbed by: Samee
Email: xcrunner64@yahoo.com

Tuning: B Standard (for 6-string guitars): B E A D F# B

 |---------------------------------|
 |---------------------------------|
 |----------Pause between----------|
 |----------0:00 and 0:01----------|
 |---------------------------------|
 |---------------------------------|

 |-----------------------------------------------------------------|
 |-----------------------------------------------------------------|
 |-----------------------------------------------------------------|
 |---------4---9-----------5-------6---------------4-------9-------|
 |-2-------2---7-----------3-------4---------------2-------7-------|
 |-0---------------------------------------------------------------|

 |-----------------------------------------------------------------|
 |-----------------------------------------------------------------|
 |-----------------------------------------------------------------|
 |---------4---9-----------5-------6---------------4-------9-------|
 |-2-------2---7-----------3-------4---------------2-------7-------|
 |-0---------------------------------------------------------------|

 |-----------------------------------------------------------------|
 |-----------------------------------------------------------------|
 |-----------------------------------------------------------------|
 |---------4---9-----------5-------6---------------4-------9-------|
 |-2-------2---7-----------3-------4---------------2-------7-------|
 |-0---------------------------------------------------------------|

 |-----------------------------------------------------------------|
 |-----------------------------------------------------------------|
 |-----------------------------------------------------------------|
 |---------4---9-----------5-------6---------------4-------9-------|
 |-2-------2---7-----------3-------4---------------2-------7-------|
 |-0---------------------------------------------------------------|

 |------------------------------------------------------------------|
 |------------------------------------------------------------------|
 |-------------------------------7~~--------------------------------|
 |---------------------------------------------------9---7----------|
 |-9---------------------7-------------------------7---7---7-10-9---|
 |-7-------0-------0-0-0-----0-0-----0-0-0-0-0-0-0------------------|
                                 +

 |------------------------------------------------------------------|
 |------------------------------------------------------------------|
 |-------------------------------7~~--------------------------------|
 |---------------------------------------------------9---7----------|
 |-9---------------------7-------------------------7---7---7-10-9---|
 |-7-------0-------0-0-0-----0-0-----0-0-0-0-0-0-0------------------|
                                 +

 |--------------------------------------------------------------|
 |--------------------------------------------------------------|
 |--------------------------------------------------------------|
 |-----7--------------------------------------------------------|
 |-8-----7---------------------8---5-7--------------------------|
 |-------------0000000011110000------------00005555444400000000-|

 |--------------------------------------------------------------|
 |--------------------------------------------------------------|
 |--------------------------------------------------------------|
 |-----7--------------------------------------------------------|
 |-8-----7---------------------8---5-7--------------------------|
 |-------------0000000011110000------------00005555444400000000-|

 |-----------------------------------------------------------------|
 |-----------------------------------------------------------------|
 |-----------------------------------------------------------------|
 |-----------------------------------------------------7-----------|
 |---------------7-------------------------------7-----------------|
 |-5x--5x--5-8-----------0-0-0-0-0-5x--5x--5-8---------------------|

 |-----------------------------------------------------------------|
 |-----------------------------------------------------------------|
 |-----------------------------------------------------------------|
 |-----------------------------------------------------7-----------|
 |---------------7-------------------------------7-----------------|
 |-5x--5x--5-8-----------0-0-0-0-0-5x--5x--5-8---------------------|

 |-----------------------------------------------------------------|
 |-----------------------------------------------------------------|
 |-----------------------------------------------------------------|
 |-2-------(2)-------(2)-------(2)-------(2)-----------------------|
 |-0-------(0)-------(0)-------(0)-------(0)-------3-------2-------|
 |-------------------------------------------------1-------0-------|

 |-----------------------------------------------------------------|
 |-----------------------------------------------------------------|
 |-----------------------------------------------------------------|
 |-2-------(2)-------(2)-------(2)-------(2)-----------------------|
 |-0-------(0)-------(0)-------(0)-------(0)-------3-------2-------|
 |-------------------------------------------------1-------0-------|

 |-----------------------------------------------------------------|
 |-----------------------------------------------------------------|
 |-----------------------------------------------------------------|
 |-2-------(2)-------(2)-------(2)-------(2)-----------------------|
 |-0-------(0)-------(0)-------(0)-------(0)-------3-------2-------|
 |-------------------------------------------------1-------0-------|

 |-----------------------------------------------------------------|
 |-----------------------------------------------------------------|
 |-----------------------------------------------------------------|
 |-2-------(2)-------(2)-------(2)-------(2)-----------------------|
 |-0-------(0)-------(0)-------(0)-------(0)-------3-------2-------|
 |-------------------------------------------------1-------0-------|

 |--------------------------------------------------------------|
 |--------------------------------------------------------------|
 |--------------------------------------------------------------|
 |-----7--------------------------------------------------------|
 |-8-----7---------------------8---5-7--------------------------|
 |-------------0000000011110000------------00005555444400000000-|

 |--------------------------------------------------------------|
 |--------------------------------------------------------------|
 |--------------------------------------------------------------|
 |-----7--------------------------------------------------------|
 |-8-----7---------------------8---5-7--------------------------|
 |-------------0000000011110000------------00005555444400000000-|

 |-----------------------------------------------------------------|
 |-----------------------------------------------------------------|
 |-----------------------------------------------------------------|
 |-----------------------------------------------------7-----------|
 |---------------7-------------------------------7-----------------|
 |-5x--5x--5-8-----------0-0-0-0-0-5x--5x--5-8---------------------|

 |-----------------------------------------------------------------|
 |-----------------------------------------------------------------|
 |-----------------------------------------------------------------|
 |-----------------------------------------------------7-----------|
 |---------------7-------------------------------7-----------------|
 |-5x--5x--5-8-----------0-0-0-0-0-5x--5x--5-8---------------------|

 |-----------------------------------------------------------------|
 |-----------------------------------------------------------------|
 |-----------------------------------------------------------------|
 |-2-------(2)-------(2)-------(2)-------(2)-----------------------|
 |-0-------(0)-------(0)-------(0)-------(0)-------3-------2-------|
 |-------------------------------------------------1-------0-------|

 |-----------------------------------------------------------------|
 |-----------------------------------------------------------------|
 |-----------------------------------------------------------------|
 |-2-------(2)-------(2)-------(2)-------(2)-----------------------|
 |-0-------(0)-------(0)-------(0)-------(0)-------3-------2-------|
 |-------------------------------------------------1-------0-------|

 |-----------------------------------------------------------------|
 |-----------------------------------------------------------------|
 |-----------------------------------------------------------------|
 |-2-------(2)-------(2)-------(2)-------(2)-----------------------|
 |-0-------(0)-------(0)-------(0)-------(0)-------3-------2-------|
 |-------------------------------------------------1-------0-------|

 |-----------------------------------------------------------------|
 |-----------------------------------------------------------------|
 |-----------------------------------------------------------------|
 |-2-------(2)-------(2)-------(2)-------(2)-----------------------|
 |-0-------(0)-------(0)-------(0)-------(0)-------3-------2-------|
 |-------------------------------------------------1-------0-------|

 |------------------------------------------------------------------|
 |------------------------------------------------------------------|
 |-------------------------------7~~--------------------------------|
 |---------------------------------------------------9---7----------|
 |-9---------------------7-------------------------7---7---7-10-9---|
 |-7-------0-------0-0-0-----0-0-----0-0-0-0-0-0-0------------------|
                                 +

 |------------------------------------------------------------------|
 |------------------------------------------------------------------|
 |-------------------------------7~~--------------------------------|
 |---------------------------------------------------9---7----------|
 |-9---------------------7-------------------------7---7---7-10-9---|
 |-7-------0-------0-0-0-----0-0-----0-0-0-0-0-0-0------------------|
                                 +

 |-----------------------------------------------------------------|
 |-----------------------------------------------------------------|
 |-----------------------------------------------------------------|
 |-----------------------------------------------------------------|
 |-----------------3-3---3-3---3-3-----------------4-4---4-4---4-4-|
 |-000---0-0---0-0-----------------000---0-0---0-0-----------------|
         .               .               .               .

 |-----------------------------------------------------------------|
 |-----------------------------------------------------------------|
 |-----------------------------------------------------------------|
 |-------------------------------------------------4~~~~~~~~~~~~---|
 |-3---------------2---2-2-3-0-1-2---------------------------------|
 |-----0-0-0-0-0-0-----------------0---(0)---(0)-------------------|

 |-----------------------------------------------------------------|
 |-----------------------------------------------------------------|
 |-----------------------------------------------------------------|
 |-----------------------------------------------------------------|
 |-----------------3-3---3-3---3-3-----------------4-4---4-4---4-4-|
 |-000---0-0---0-0-----------------000---0-0---0-0-----------------|
         .               .               .               .

 |-------------------------------------------------------------------|
 |-------------------------------------------------------------------|
 |-------------------------------------------------------------------|
 |-----------------4---(4)---(4)-------------------4---5-------------|
 |-3---(3)---(3)---2---(2)---(2)---2---(2)---(2)-----------3-------2-|
 |-1---(1)---(1)-------------------0---(0)---(0)-------------------0-|

 |-------------------------------------------------------------------------|
 |-------------------------------------------------------------------------|
 |-------------------------------------------------------------------------|
 |-------------------------------------------------------------------------|
 |-(2)-(2)-(2)-(2)-(2)-(2)-(2)-(2)-(2)-(2)-(2)-(2)-(2)-(2)-(2)-(2)-(2)-(2)-|
 |-(0)-(0)-(0)-(0)-(0)-(0)-(0)-(0)-(0)-(0)-(0)-(0)-(0)-(0)-(0)-(0)-(0)-(0)-|

 |-------------------------------------------------------------------------|
 |-------------------------------------------------------------------------|
 |-------------------------------------------------------------------------|
 |-------------------------------------------------------------------------|
 |-(2)-(2)-(2)-(2)-(2)-(2)-(2)-(2)-(2)-(2)-(2)-(2)-(2)-(2)-(2)-(2)-(2)-(2)-|
 |-(0)-(0)-(0)-(0)-(0)-(0)-(0)-(0)-(0)-(0)-(0)-(0)-(0)-(0)-(0)-(0)-(0)-(0)-|

 |-------------------------------------------------------------------------|
 |-------------------------------------------------------------------------|
 |-------------------------------------------------------------------------|
 |-------------------------------------------------------------------------|
 |-(2)-(2)-(2)-(2)-(2)-(2)-(2)-(2)-(2)-(2)-(2)-(2)-(2)-(2)-(2)-(2)-(2)-(2)-|
 |-(0)-(0)-(0)-(0)-(0)-(0)-(0)-(0)-(0)-(0)-(0)-(0)-(0)-(0)-(0)-(0)-(0)-(0)-|

 |-----------------------------|
 |-----------------------------|
 |-----------------------------|
 |-----------------pick slide--|
 |-(2)-(2)-(2)-(2)-------------|
 |-(0)-(0)-(0)-(0)-------------|

 |--------------------------------------------------------------|
 |--------------------------------------------------------------|
 |--------------------------------------------------------------|
 |-----7--------------------------------------------------------|
 |-8-----7---------------------8---5-7--------------------------|
 |-------------0000000011110000------------00005555444400000000-|

 |--------------------------------------------------------------|
 |--------------------------------------------------------------|
 |--------------------------------------------------------------|
 |-----7--------------------------------------------------------|
 |-8-----7---------------------8---5-7--------------------------|
 |-------------0000000011110000------------00005555444400000000-|

 |-----------------------------------------------------------------|
 |-----------------------------------------------------------------|
 |-----------------------------------------------------------------|
 |-----------------------------------------------------7-----------|
 |---------------7-------------------------------7-----------------|
 |-5x--5x--5-8-----------0-0-0-0-0-5x--5x--5-8---------------------|

 |-----------------------------------------------------------------|
 |-----------------------------------------------------------------|
 |-----------------------------------------------------------------|
 |-----------------------------------------------------7-----------|
 |---------------7-------------------------------7-----------------|
 |-5x--5x--5-8-----------0-0-0-0-0-5x--5x--5-8---------------------|

 |-----------------------------------------------------------------|
 |-----------------------------------------------------------------|
 |-----------------------------------------------------------------|
 |-2-------(2)-------(2)-------(2)-------(2)-----------------------|
 |-0-------(0)-------(0)-------(0)-------(0)-------3-------2-------|
 |-------------------------------------------------1-------0-------|

 |-----------------------------------------------------------------|
 |-----------------------------------------------------------------|
 |-----------------------------------------------------------------|
 |-2-------(2)-------(2)-------(2)-------(2)-----------------------|
 |-0-------(0)-------(0)-------(0)-------(0)-------3-------2-------|
 |-------------------------------------------------1-------0-------|

 |-----------------------------------------------------------------|
 |-----------------------------------------------------------------|
 |-----------------------------------------------------------------|
 |-2-------(2)-------(2)-------(2)-------(2)-----------------------|
 |-0-------(0)-------(0)-------(0)-------(0)-------3-------2-------|
 |-------------------------------------------------1-------0-------|

 |-----------------------------------------------------------------|
 |-----------------------------------------------------------------|
 |-----------------------------------------------------------------|
 |-2-------(2)-------(2)-------(2)-------(2)-----------------------|
 |-0-------(0)-------(0)-------(0)-------(0)-------3-------2-------|
 |-------------------------------------------------1-------0-------|

 |------------------------------------------------------------------|
 |------------------------------------------------------------------|
 |-------------------------------7~~--------------------------------|
 |---------------------------------------------------9---7----------|
 |-9---------------------7-------------------------7---7---7-10-9---|
 |-7-------0-------0-0-0-----0-0-----0-0-0-0-0-0-0------------------|
                                 +

 |------------------------------------------------------------------|
 |------------------------------------------------------------------|
 |-------------------------------7~~--------------------------------|
 |---------------------------------------------------9---7----------|
 |-9---------------------7-------------------------7---7---7-10-9---|
 |-7-------0-------0-0-0-----0-0-----0-0-0-0-0-0-0------------------|
                                 +

 |------------------------------------------------------------------|
 |------------------------------------------------------------------|
 |-------------------------------7~~--------------------------------|
 |---------------------------------------------------9---7----------|
 |-9---------------------7-------------------------7---7---7-10-9---|
 |-7-------0-------0-0-0-----0-0-----0-0-0-0-0-0-0------------------|
                                 +

 |------------------------------------------------------------------|
 |------------------------------------------------------------------|
 |-------------------------------7~~--------------------------------|
 |---------------------------------------------------9---7----------|
 |-9---------------------7-------------------------7---7---7-10-9---|
 |-7-------0-------0-0-0-----0-0-----0-0-0-0-0-0-0------------------|
                                 +

 |-----------------------------------------------------------------|
 |-----------------------------------------------------------------|
 |-----------------------------------------------------------------|
 |---------4---9-----------5-------6---------------4-------9-------|
 |-2-------2---7-----------3-------4---------------2-------7-------|
 |-0---------------------------------------------------------------|

 |-----------------------------------------------------------------|
 |-----------------------------------------------------------------|
 |-----------------------------------------------------------------|
 |---------4---9-----------5-------6---------------4-------9-------|
 |-2-------2---7-----------3-------4---------------2-------7-------|
 |-0---------------------------------------------------------------|

 |-----------------------------------------------------------------|
 |-----------------------------------------------------------------|
 |-----------------------------------------------------------------|
 |---------4---9-----------5-------6---------------4-------9-------|
 |-2-------2---7-----------3-------4---------------2-------7-------|
 |-0---------------------------------------------------------------|

 |-----------------------------------------------------------------|
 |-----------------------------------------------------------------|
 |-----------------------------------------------------------------|
 |---------4---9-----------5-------6---------------4-------9-------|
 |-2-------2---7-----------3-------4---------------2-------7-------|
 |-0---------------------------------------------------------------|

 |-----------|
 |-----------|
 |-----------|
 |-----------|
 |-2---2---x-|
 |-0---0---x-|
   .


************************************

| ~   vibrato
| +   pinch harmonic
| x   mute note
| (#) let ring

************************************

            
            
Suggest correction
Creating personal tab
Creating personal tab
You can edit any tab online and save it as your Personal.

You can edit, replace or remove any tab part or add personal notes – all changes will be seen only by you.

Personal tabs can be accessed anytime from any device, even offline.
Learn more »
Give kudos to tab author, rate the tab!
1 2 3 4 5
comments
print report bad tab
guest
You may want to rate the tab now too:
select rating
Wanna post a correction for this tab? Suggest correction