Oops, an error
Loading. Please wait.

A Single Hat Lost At Sea tab

73 views 3 this week
no commentswrite comment
1 2 3 4 5
3 more votes to show rating
add to favorites
×
Save as Personal and add changes to this tab that will be seen only by you. Learn more ›
×
You can save this tab as Personal to edit and correct it or add notes. All changes will be seen only by you. Learn more »
launch autoscroll
font size
0
reset
how to read this tab
guitar tuner
edit
Autoscroll
slow
fast
+/-
esc
set tempo
stop
Author
Difficulty
About this tab version
Minor formatting changes according to UG Tab Formatting Guide. Was this info helpful? Yes No
Zoo Strategies' Bandcamp:
http://zoostrategies.bandcamp.com/
A Single Hat Lost At Sea:
https://www.youtube.com/watch?v=qKrz85fWLmA
My cover of the song (tutorial coming soon on my channel):
https://www.youtube.com/watch?v=VwFzK2GdEi4
Tabbed By: crazyguitarman3
Tuning: D A D F# A E
Guitar 1 - Left speaker
Guitar 2 - Right speaker

[Part 1]
(Guitar 1)
(0:02)
E |--------10------------10------------10------------10-----|
A |----10------10----10------10----10------10----10------10-|
F#|--12--12--12----12--12--12----12--12--12----12--12--12---|
D |-0-------------0-------------0-------------0-------------|
A |---------------------------------------------------------|
D |---------------------------------------------------------|

E |--------10------------10------------10------------10-----|
A |----10------10----10------10----10------10----10------10-|
F#|--12--12--12----12--12--12----12--12--12----12--12--12---|
D |-0-------------0-------------0-------------0-------------|
A |---------------------------------------------------------|
D |---------------------------------------------------------|

E |--------10------------10------------10------------10-----|
A |----10------10----10------10----10------10----10------10-|
F#|--12--12--12----12--12--12----12--12--12----12--12--12---|
D |-0-------------0-------------0-------------0-------------|
A |---------------------------------------------------------|
D |---------------------------------------------------------|

E |--------10------------10------------10------------10-----|
A |----10------10----10------10----10------10----10------10-|
F#|--12--12--12----12--12--12----12--12--12----12--12--12---|
D |-0-------------0-------------0-------------0-------------|
A |---------------------------------------------------------|
D |---------------------------------------------------------|

[Guitar 2]
(0:02)
E |-----0-------------------0--------------0--------------7------|
A |---------0-----------9-----9----------------------------------|
F#|-----------13------8---8-----8------8-------8------10------10-|
D |---12--12----12-------------------7---7---7------7---7---7----|
A |-10--------------------------------------------7--------------|
D |-----------------9--------------7-----------------------------|

E |-----0-------------------0--------------0--------------7------|
A |---------0-----------9-----9----------------------------------|
F#|-----------13------8---8-----8------8-------8------10------10-|
D |---12--12----12-------------------7---7---7------7---7---7----|
A |-10--------------------------------------------7--------------|
D |-----------------9--------------7-----------------------------|

E |-----0-------------------0--------------0--------------7------|
A |---------0-----------9-----9----------------------------------|
F#|-----------13------8---8-----8------8-------8------10------10-|
D |---12--12----12-------------------7---7---7------7---7---7----|
A |-10--------------------------------------------7--------------|
D |-----------------9--------------7-----------------------------|

E |-----0-------------------0--------------0--------------7------|
A |---------0-----------9-----9----------------------------------|
F#|-----------13------8---8-----8------8-------8------10------10-|
D |---12--12----12-------------------7---7---7------7---7---7----|
A |-10--------------------------------------------7--------------|
D |-----------------9--------------7-----------------------------|

[Part 2]
(Guitar 1)
(0:27)
E |--------------------------------------------------------0-------0------0-----------|
A |------10-----10-----10-----10-----10------17---------14------12-----10-------7N.H.-|
F#|----8------8------8------8------8------15---------12------10------8------8p0-7N.H.-|
D |---------9------7------------------------------------------------------------------|
A |-10--------------------9------7------7---------------------------------------------|
D |-----------------------------------------------------------------------------------|

E |--------------------------------------------------------0-------0------0------|
A |------10-----10-----10-----10-----10------17---------14------12-----10---10---|
F#|----8------8------8------8------8------15---------12------10------8---------8-|
D |---------9------7-------------------------------------------------------------|
A |-10--------------------9------7------7----------------------------------------|
D |------------------------------------------------------------------------------|

E |------------------------------------------------0-------0-------0------0-----------|
A |------10-----10-----10-----10-----10------17---------14------12-----10-------7N.H.-|
F#|----8------8------8------8------8------15---------12------10------8------8p0-7N.H.-|
D |---------9------7------------------------------------------------------------------|
A |-10--------------------9------7------7---------------------------------------------|
D |-----------------------------------------------------------------------------------|

E |--------------------------------------------------------0-------0------0------|
A |------10-----10-----10-----10-----10------17---------14------12-----10---10---|
F#|----8------8------8------8------8------15---------12------10------8---------8-|
D |---------9------7-------------------------------------------------------------|
A |-10--------------------9------7------7----------------------------------------|
D |------------------------------------------------------------------------------|

[Guitar 2]
(0:27)
E |---------5---------5h7h5------------------------------------------------|
A |-----------5-------------5-----------------0----------------------------|
F#|-----8--------8------------5-------------0---0---------------------7N.H-|
D |---7-------------7-----------7---------2--------2----2h4p2p0-------7N.H-|
A |-------------------------------------5-------------5---------2-p0--7N.H-|
D |-5-----5-----------------------0-h-4-------------------------------7N.H-|

E |---------5---------5h7h5------------------------------------------------|
A |-----------5-------------5-----------------0----------------------------|
F#|-----8--------8------------5-------------0---0---------------------7N.H-|
D |---7-------------7-----------7---------2--------2----2h4p2p0-------7N.H-|
A |-------------------------------------5-------------5---------2-p0--7N.H-|
D |-5-----5-----------------------0-h-4-------------------------------7N.H-|

E |---------5---------5h7h5------------------------------------------------|
A |-----------5-------------5-----------------0----------------------------|
F#|-----8--------8------------5-------------0---0---------------------7N.H-|
D |---7-------------7-----------7---------2--------2----2h4p2p0-------7N.H-|
A |-------------------------------------5-------------5---------2-p0--7N.H-|
D |-5-----5-----------------------0-h-4-------------------------------7N.H-|

E |---------5---------5h7h5------------------------------------------------|
A |-----------5-------------5-----------------0----------------------------|
F#|-----8--------8------------5-------------0---0---------------------7N.H-|
D |---7-------------7-----------7---------2--------2----2h4p2p0-------7N.H-|
A |-------------------------------------5-------------5---------2-p0--7N.H-|
D |-5-----5-----------------------0-h-4-------------------------------7N.H-|

(0:56)
E |-------------------------|
A |-------------------------|
F#|-12N.H.----5N.H.----7N.H.|
D |-12N.H.----5N.H.----7N.H.|
A |-12N.H.----5N.H.----7N.H.|
D |-12N.H.----5N.H.----7N.H.|

[Part 3]
(Guitar 1)
(0:59)
E |----------------------------------------------------------------------|
A |----------------------------------------------------------------------|
F#|-3--3--x-x-3--3-------------------------------------------17-/-15-p-0-|
D |-0--0--x-x-0--0-------------------------------------------14-/-12-p-0-|
A |-0--0--x-x-0--0----------------------------------------0--------------|
D |----------------------------------------------------------------------|

E |---------------------------------------------------|
A |----------------------------------9----------------|
F#|-15--15--x-x-15--15-------------------8----------8-|
D |-14--14--x-x-14--14----4-4--0----------------7-----|
A |-12--12--x-x-12--12----5-5--0----------------------|
D |-----------------------4-4--0--5---------4---------|

E |----------------------------------------------------------------------|
A |----------------------------------------------------------------------|
F#|-3--3--x-x-3--3-------------------------------------------17-/-15-p-0-|
D |-0--0--x-x-0--0-------------------------------------------14-/-12-p-0-|
A |-0--0--x-x-0--0----------------------------------------0--------------|
D |----------------------------------------------------------------------|

E |---------------------------------------------------|
A |----------------------------------9----------------|
F#|-15--15--x-x-15--15-------------------8----------8-|
D |-14--14--x-x-14--14----4-4--0----------------7-----|
A |-12--12--x-x-12--12----5-5--0----------------------|
D |-----------------------4-4--0--5---------4---------|

[Guitar 2]
(0:59)
E |------------------14T-p-5-7t-p-5-------------------------------------|
A |---------------------------------12T-p-5-h-7-p-5-9T-p-4--------------|
F#|-3--3--x-x-3--3--------------------------------------------7-/-5-p-0-|
D |-x--x--x-x-x--x--------------------------------------------7-/-5-p-0-|
A |-5--5--x-x-5--5--------------------------------------------x---------|
D |-5--5--x-x-5--5-----------------------------------------7--7-p-0-----|

E |---------------------------------------------------|
A |----------------------------------9----------------|
F#|-3--3--x-x-3--3----x-x--7N.H.----------------7-----|
D |-x--x--x-x-x--x----x-x--7N.H.---------0----------0-|
A |-5--5--x-x-5--5----x-x--7N.H.----------------------|
D |-5--5--x-x-5--5----x-x--7N.H.--5---------4---------|

E |------------------------------------------------------------------|
A |-----------------12T-p5h7------------------------12T-p5h7---------|
F#|---------12T-p5h7--------12T-p5h7--------12T-p5h7--------12T-p5h7-|
D |-12T-p5h7------------------------12T-p5h7-------------------------|
A |------------------------------------------------------------------|
D |------------------------------------------------------------------|

E |------------------14T-p-5-7t-p-5-------------------------------------|
A |---------------------------------12T-p-5-h-7-p-5-9T-p-4--------------|
F#|-3--3--x-x-3--3--------------------------------------------7-/-5-p-0-|
D |-x--x--x-x-x--x--------------------------------------------7-/-5-p-0-|
A |-5--5--x-x-5--5--------------------------------------------x---------|
D |-5--5--x-x-5--5-----------------------------------------7--7-p-0-----|

E |---------------------------------------------------|
A |----------------------------------9----------------|
F#|-3--3--x-x-3--3----x-x--7N.H.----------------7-----|
D |-x--x--x-x-x--x----x-x--7N.H.---------0----------0-|
A |-5--5--x-x-5--5----x-x--7N.H.----------------------|
D |-5--5--x-x-5--5----x-x--7N.H.--5---------4---------|

E |------------------------------------------------------------------|
A |-----------------12T-p5h7------------------------12T-p5h7---------|
F#|---------12T-p5h7--------12T-p5h7--------12T-p5h7--------12T-p5h7-|
D |-12T-p5h7------------------------12T-p5h7-------------------------|
A |------------------------------------------------------------------|
D |------------------------------------------------------------------|

E |------------------------------------------------------------------|
A |-----------------12T-p5h7------------------------12T-p5h7---------|
F#|---------12T-p5h7--------12T-p5h7--------12T-p5h7--------12T-p5h7-|
D |-12T-p5h7------------------------12T-p5h7-------------------------|
A |------------------------------------------------------------------|
D |------------------------------------------------------------------|

[Part 4]
(Guitar 1)
(1:24)
E |----------------------------------------------------------|
A |-9------------------4------------------5------------------|
F#|-8------------------3------------------3------------------|
D |-7------------------2------------------4------------------|
A |-9------------------4------------------5------------------|
D |----------------------------------------------------------|

E |----------------------------------------------------------|
A |-9------------------4------------------5------------------|
F#|-8------------------3------------------3------------------|
D |-7------------------2------------------4------------------|
A |-9------------------4------------------5------------------|
D |----------------------------------------------------------|

E |----------------------------------------------------------|
A |-9------------------4------------------5------------------|
F#|-8------------------3------------------3------------------|
D |-7------------------2------------------4------------------|
A |-9------------------4------------------5------------------|
D |----------------------------------------------------------|

E |----------------------------------------------------------|
A |-9------------------4------------------5------------------|
F#|-8------------------3------------------3------------------|
D |-7------------------2------------------4------------------|
A |-9------------------4------------------5------------------|
D |----------------------------------------------------------|

[Guitar 2]
(1:24)
                                         .       .   .        
E |------------------------------------------------------------|
A |------------------------------------------------------------|
F#|------------------------------------------------------------|
D |-0-12h14p12---------------------------4-4h5p4---4---2h4p2p0-|
A |-0---------12h14p12---12\9---9\7-7\5--4-------4---0---------|
D |-0------------------0------0----------4---------------------|

                                         .       .   .    
E |-----------------------------------------------------------------------|
A |-----------------------------------------------------------------------|
F#|--------------------------------------------------------7N.H.-5N.H.----|
D |-0-12h14p12---------------------------4-4h5p4---4---2h4-7N.H.-5N.H.----|
A |-0---------12h14p12---12\9---9\7-7\5--4-------4---0-----7N.H.-5N.H.----|
D |-0------------------0------0----------4-----------------7N.H.-5N.H.----|

                                         .       .   .        
E |------------------------------------------------------------|
A |------------------------------------------------------------|
F#|------------------------------------------------------------|
D |-0-12h14p12---------------------------4-4h5p4---4---2h4p2p0-|
A |-0---------12h14p12---12\9---9\7-7\5--4-------4---0---------|
D |-0------------------0------0----------4---------------------|

                                         .       .   .    
E |-----------------------------------------------------------------------|
A |-----------------------------------------------------------------------|
F#|--------------------------------------------------------7N.H.-5N.H.----|
D |-0-12h14p12---------------------------4-4h5p4---4---2h4-7N.H.-5N.H.----|
A |-0---------12h14p12---12\9---9\7-7\5--4-------4---0-----7N.H.-5N.H.----|
D |-0------------------0------0----------4-----------------7N.H.-5N.H.----|

[Part 5]
(Guitar 1)
(1:41)
E |--------------------------------------------------------------|
A |--------------------------------------------------------------|
F#|-------------------------------------12--12--12--12-----------|
D |---------------------------------12--12--12--12--12--------12-|
A |---------------------------12h14-----10--10--10--10--12h14----|
D |--------------------------------------------------------------|

[Guitar 2]
(1:41)
E |-----------17--17--17--17------------17--17--17--17-----------|
A |-----------17--17--17--17------------17--17--17--17-----------|
F#|-------12--15--15--15--15--------12--15--15--15--15--------12-|
D |-------12--17--17--17--17--------12--17--17--17--17--------12-|
A |-------12------------------------12------------------------12-|
D |-12h14---------------------12h14---------------------12h14----|

[Part 6]
(Guitar 1)
(1:47)
E |-------------------------------------------10-------------|
A |----------------------------------------12----------------|
F#|-8--8--8--8---8--8887-12--8--8--8--8-------------13-12-10-|
D |-7--7--7--7---7--7777-12--7--7--7--7----------------------|
A |-5--5--5--5---9--9997-12--5--5--5--5-12-------15----------|
D |----------------------------------------------------------|

E |-------------------------------------------10-------------|
A |----------------------------------------12----------------|
F#|-8--8--8--8---8--8887-12--8--8--8--8-------------13-12-10-|
D |-7--7--7--7---7--7777-12--7--7--7--7----------------------|
A |-5--5--5--5---9--9997-12--5--5--5--5-12-------15----------|
D |----------------------------------------------------------|

[Guitar 2]
(1:47)
E |-5--5--5--5---------------5--5--5--5----------------|
A |-5--5--5--5---------------5--5--5--5----------------|
F#|-8--8--8--8---8--8887-12--8--8--8--8-8-8-8-7-7-7-12-|
D |-7--7--7--7---7--7777-12--7--7--7--7-7-7-7-7-7-7-12-|
A |-5--5--5--5---9--999x-12--5--5--5--5-9-9-9-x-x-x-12-|
D |-5--5--5--5---9--9997-12--5--5--5--5-9-9-9-7-7-7-12-|

E |-5--5--5--5---------------5--5--5--5----------------|
A |-5--5--5--5---------------5--5--5--5----------------|
F#|-8--8--8--8---8--8887-12--8--8--8--8-8-8-8-7-7-7-12-|
D |-7--7--7--7---7--7777-12--7--7--7--7-7-7-7-7-7-7-12-|
A |-5--5--5--5---9--999x-12--5--5--5--5-9-9-9-x-x-x-12-|
D |-5--5--5--5---9--9997-12--5--5--5--5-9-9-9-7-7-7-12-|

[Part 7]
(Guitar 1)
(2:10)
E |----------------------------------------------------------------------|
A |----------------------------------------------------------------------|
F#|-3--3--x-x-3--3-------------------------------------------17-/-15-p-0-|
D |-0--0--x-x-0--0-------------------------------------------14-/-12-p-0-|
A |-0--0--x-x-0--0----------------------------------------0--------------|
D |----------------------------------------------------------------------|

E |-----------------------------------------------------|
A |----------------------------------9----------------9-|
F#|-15--15--x-x-15--15-------------------8----------8---|
D |-14--14--x-x-14--14----4-4--0----------------7-------|
A |-12--12--x-x-12--12----5-5--0------------------------|
D |-----------------------4-4--0--5---------4-----------|

E |----------------------------------------------------------------------|
A |----------------------------------------------------------------------|
F#|-3--3--x-x-3--3-------------------------------------------17-/-15-p-0-|
D |-0--0--x-x-0--0-------------------------------------------14-/-12-p-0-|
A |-0--0--x-x-0--0----------------------------------------0--------------|
D |----------------------------------------------------------------------|

E |---------------------------------------------------|
A |----------------------------------9----------------|
F#|-15--15--x-x-15--15-------------------8----------8-|
D |-14--14--x-x-14--14----4-4--0----------------7-----|
A |-12--12--x-x-12--12----5-5--0----------------------|
D |-----------------------4-4--0--5---------4---------|

E |-------------------------------------------------------------|
A |----9-------------------9-------------------9----------------|
F#|--------8----------8--------8----------8--------8----------8-|
D |---------------7-------------------7-------------------7-----|
A |-------------------------------------------------------------|
D |-5---------4---------5---------4---------5---------4---------|

[Guitar 2]
(2:10)
E |------------------14T-p-5-7t-p-5-------------------------------------|
A |---------------------------------12T-p-5-h-7-p-5-9T-p-4--------------|
F#|-3--3--x-x-3--3--------------------------------------------7-/-5-p-0-|
D |-x--x--x-x-x--x--------------------------------------------7-/-5-p-0-|
A |-5--5--x-x-5--5--------------------------------------------x---------|
D |-5--5--x-x-5--5-----------------------------------------7--7-p-0-----|

E |---------------------------------------------------|
A |----------------------------------9----------------|
F#|-3--3--x-x-3--3----x-x--7N.H.----------------7-----|
D |-x--x--x-x-x--x----x-x--7N.H.---------0----------0-|
A |-5--5--x-x-5--5----x-x--7N.H.----------------------|
D |-5--5--x-x-5--5----x-x--7N.H.--5---------4---------|

E |------------------------------------------------------------------|
A |-----------------12T-p5h7------------------------12T-p5h7---------|
F#|---------12T-p5h7--------12T-p5h7--------12T-p5h7--------12T-p5h7-|
D |-12T-p5h7------------------------12T-p5h7-------------------------|
A |------------------------------------------------------------------|
D |------------------------------------------------------------------|

E |------------------14T-p-5-7t-p-5-------------------------------------|
A |---------------------------------12T-p-5-h-7-p-5-9T-p-4--------------|
F#|-3--3--x-x-3--3--------------------------------------------7-/-5-p-0-|
D |-x--x--x-x-x--x--------------------------------------------7-/-5-p-0-|
A |-5--5--x-x-5--5--------------------------------------------x---------|
D |-5--5--x-x-5--5-----------------------------------------7--7-p-0-----|

E |---------------------------------------------------|
A |----------------------------------9----------------|
F#|-3--3--x-x-3--3----x-x--7N.H.----------------7-----|
D |-x--x--x-x-x--x----x-x--7N.H.---------0----------0-|
A |-5--5--x-x-5--5----x-x--7N.H.----------------------|
D |-5--5--x-x-5--5----x-x--7N.H.--5---------4---------|

E |-------------------------------------------------------------|
A |----9-------------------9-------------------9----------------|
F#|---------------7-------------------7-------------------7-----|
D |--------0----------0--------0----------0--------0----------0-|
A |-------------------------------------------------------------|
D |-5---------4---------5---------4---------5---------4---------|

[Part 8]
(Guitar 1)
(2:36)
E |-----------------------------------------------------------------------------|
A |-----10----------9------10----------9------10----------9------10----------8--|
F#|--------8-----8------------8-----8------------8-----8------------8-----8-----|
D |-----------------------------------------------------------------------------|
A |-10--------9--------10--------9--------10--------9--------10--------9--------|
D |-----------------------------------------------------------------------------|

E |-----------------------------------------------------------------------------|
A |-----------------9------10----------9------10----------9------10----------9--|
F#|-----8--------8------------8-----8------------8-----8------------8-----8-----|
D |--------7p5------------------------------------------------------------------|
A |------------5-------10--------9--------10--------9--------10--------9--------|
D |-5---------------------------------------------------------------------------|

[Guitar 2]
(2:36)
E |-------------------------------------------------------------------------------------------------|
A |-------------------------------------------------------------------------------------------------|
F#|-----20-----------19---------20-----------19---------20-----------19---------20-----------19-----|
D |----------0------------0----------0------------0----------0------------0----------0------------0-|
A |-------------------------------------------------------------------------------------------------|
D |-17----------16----------17----------16----------17----------16----------17----------16----------|

E |-------------------------------------------------------------------------------------------------|
A |-------------------------------------------------------------------------------------------------|
F#|-----20-----------19---------20-----------19---------20-----------19---------20-----------19-----|
D |----------0------------0----------0------------0----------0------------0----------0------------0-|
A |-------------------------------------------------------------------------------------------------|
D |-17----------16----------17----------16----------17----------16----------17----------16----------|

[Part 9]
(Guitar 1)
(2:50)
E |--------------------------------------------------------------|
A |--------------------------------------------------------------|
F#|-------------------------------------12--12--12--12-----------|
D |---------------------------------12--12--12--12--12--------12-|
A |---------------------------12h14-----10--10--10--10--12h14----|
D |--------------------------------------------------------------|

[Guitar 2]
(2:50)
E |-----------17--17--17--17------------17--17--17--17----------|
A |-----------17--17--17--17------------17--17--17--17----------|
F#|-------12--15--15--15--15--------12--15--15--15--15--------12|
D |-------12--17--17--17--17--------12--17--17--17--17--------12|
A |-------12------------------------12------------------------12|
D |-12h14---------------------12h14---------------------12h14---|

[Part 10]
(Guitar 1)
(2:55)
E |-------------------------------------------10----------------|
A |----------------------------------------12-------------------|
F#|-8--8--8--8---8--8887-12--8--8--8--8-------------13-12-10-12-|
D |-7--7--7--7---7--7777-12--7--7--7--7-------------------------|
A |-5--5--5--5---9--9997-12--5--5--5--5-12-------15-------------|
D |-------------------------------------------------------------|

E |-------------------------------------------10-------------|
A |----------------------------------------12----------------|
F#|-8--8--8--8---8--8887-12--8--8--8--8-------------13-12-10-|
D |-7--7--7--7---7--7777-12--7--7--7--7----------------------|
A |-5--5--5--5---9--9997-12--5--5--5--5-12-------15----------|
D |----------------------------------------------------------|

[Guitar 2]
(2:55)
E |-5--5--5--5---------------5--5--5--5----------------|
A |-5--5--5--5---------------5--5--5--5----------------|
F#|-8--8--8--8---8--8887-12--8--8--8--8-8-8-8-7-7-7-12-|
D |-7--7--7--7---7--7777-12--7--7--7--7-7-7-7-7-7-7-12-|
A |-5--5--5--5---9--999x-12--5--5--5--5-9-9-9-x-x-x-12-|
D |-5--5--5--5---9--9997-12--5--5--5--5-9-9-9-7-7-7-12-|

E |-5--5--5--5---------------5--5--5--5----------------|
A |-5--5--5--5---------------5--5--5--5----------------|
F#|-8--8--8--8---8--8887-12--8--8--8--8-8-8-8-7-7-7-12-|
D |-7--7--7--7---7--7777-12--7--7--7--7-7-7-7-7-7-7-12-|
A |-5--5--5--5---9--999x-12--5--5--5--5-9-9-9-x-x-x-12-|
D |-5--5--5--5---9--9997-12--5--5--5--5-9-9-9-7-7-7-12-|

[Part 11]
(Guitar 1)
(3:19)
E |-8--8--8--8-----------------------8--8--8--8-----------------------|
A |-8--8--8--8-----------------------8--8--8--8-----------------------|
F#|-11-11-11-11--15--15-15-15-13-18--11-11-11-11----18----------------|
D |-10-10-10-10--12--12-12-12-14-19--10-10-10-10-------15----20-19-17-|
A |-8--8--8--8---12--12-12-12-10-15--8--8--8--8--15-------15----------|
D |-8--8--8--8---12--12-12-12-10-15--8--8--8--8-----------------------|

E |-8--8--8--8-----------------------8--8--8--8--------------------------|
A |-8--8--8--8-----------------------8--8--8--8--------------------------|
F#|-11-11-11-11--15--15-15-15-13-18--11-11-11-11----18-------------------|
D |-10-10-10-10--12--12-12-12-14-19--10-10-10-10-------15----20-19-17-19-|
A |-8--8--8--8---12--12-12-12-10-15--8--8--8--8--15-------15-------------|
D |-8--8--8--8---12--12-12-12-10-15--8--8--8--8--------------------------|

[Guitar 2]
(3:19)
E |-8--8--8--8-----------------------8--8--8--8-----------------------|
A |-8--8--8--8-----------------------8--8--8--8-----------------------|
F#|-11-11-11-11--15--15-15-15-13-18--11-11-11-11-15-15-15-13-13-13-18-|
D |-10-10-10-10--12--12-12-12-14-19--10-10-10-10-12-12-12-14-14-14-19-|
A |-8--8--8--8---12--12-12-12-10-15--8--8--8--8--12-12-12-10-10-10-15-|
D |-8--8--8--8---12--12-12-12-10-15--8--8--8--8--12-12-12-10-10-10-15-|

E |-8--8--8--8-----------------------8--8--8--8-----------------------|
A |-8--8--8--8-----------------------8--8--8--8-----------------------|
F#|-11-11-11-11--15--15-15-15-13-18--11-11-11-11-15-15-15-13-13-13-18-|
D |-10-10-10-10--12--12-12-12-14-19--10-10-10-10-12-12-12-14-14-14-19-|
A |-8--8--8--8---12--12-12-12-10-15--8--8--8--8--12-12-12-10-10-10-15-|
D |-8--8--8--8---12--12-12-12-10-15--8--8--8--8--12-12-12-10-10-10-15-|

[Part 12]
(Guitar 1)
(3:49)
E |--------10------------10------------10------------10-----|
A |----10------10----10------10----10------10----10------10-|
F#|--12--12--12----12--12--12----12--12--12----12--12--12---|
D |-0-------------0-------------0-------------0-------------|
A |---------------------------------------------------------|
D |---------------------------------------------------------|

E |--------10------------10------------10------------10-----|
A |----10------10----10------10----10------10----10------10-|
F#|--12--12--12----12--12--12----12--12--12----12--12--12---|
D |-0-------------0-------------0-------------0-------------|
A |---------------------------------------------------------|
D |---------------------------------------------------------|

E |--------10------------10------------10------------10-----|
A |----10------10----10------10----10------10----10------10-|
F#|--12--12--12----12--12--12----12--12--12----12--12--12---|
D |-0-------------0-------------0-------------0-------------|
A |---------------------------------------------------------|
D |---------------------------------------------------------|

E |--------10------------10------------10------------10-----|
A |----10------10----10------10----10------10----10------10-|
F#|--12--12--12----12--12--12----12--12--12----12--12--12---|
D |-0-------------0-------------0-------------0-------------|
A |---------------------------------------------------------|
D |---------------------------------------------------------|

E |--------10------------10------------10------------10-----|
A |----10------10----10------10----10------10----10------10-|
F#|--12--12--12----12--12--12----12--12--12----12--12--12---|
D |-0-------------0-------------0-------------0-------------|
A |---------------------------------------------------------|
D |---------------------------------------------------------|

[Guitar 2]
(3:43)
E |---------7-------------7-------------7------------7-----|
A |-----5-------5-----5-------5-----5-------5----5-------5-|
F#|---7---7---7-----7---7---7-----7---7---7----7---7---7---|
D |-0-------------0-------------0------------0-------------|
A |--------------------------------------------------------|
D |--------------------------------------------------------|

E |---------7-------------7-------------7------------7-----|
A |-----5-------5-----5-------5-----5-------5----5-------5-|
F#|---7---7---7-----7---7---7-----7---7---7----7---7---7---|
D |-0-------------0-------------0------------0-------------|
A |--------------------------------------------------------|
D |--------------------------------------------------------|

    .   .   . .   .   .   . .   .   .   . .   .   .   . .   
E |---------------------------------------------------------|
A |---------------------------------------------------------|
F#|---------------------------------------------------------|
D |-0-x-0-x-0-0-x-0-x-0-x-0-0-x-7-x-7-x-7-7-x-7-x-7-x-7-7-x-|
A |-2-x-2-x-2-2-x-2-x-2-x-2-2-x-5-x-5-x-5-5-x-5-x-5-x-5-5-x-|
D |-2-x-2-x-2-2-x-2-x-2-x-2-2-x-5-x-5-x-5-5-x-5-x-5-x-5-5-x-|

    .    .    .  .    .    .    .  .    .    .    .  .    .    .    .  .   
E |-------------------------------------------------------------------------|
A |-------------------------------------------------------------------------|
F#|-------------------------------------------------------------------------|
D |-12-x-12-x-12-12-x-12-x-12-x-12-12-x-16-x-16-x-16-16-x-16-x-16-x-16-16-x-|
A |-9--x-9--x-9--9--x-9--x-9--x-9--9--x-12-x-12-x-12-12-x-12-x-12-x-12-12-x-|
D |-9--x-9--x-9--9--x-9--x-9--x-9--9--x-12-x-12-x-12-12-x-12-x-12-x-12-12-x-|

E |---------------------------------------------------------|
A |---------------------------------------------------------|
F#|---------------------------------------------------------|
D |-0-x-0-x-0-0-x-0-x-0-x-0-0-x-7-x-7-x-7-7-x-7-x-7-x-7-7-x-|
A |-2-x-2-x-2-2-x-2-x-2-x-2-2-x-5-x-5-x-5-5-x-5-x-5-x-5-5-x-|
D |-2-x-2-x-2-2-x-2-x-2-x-2-2-x-5-x-5-x-5-5-x-5-x-5-x-5-5-x-|

E |-------------------------------------------------------------------------|
A |-------------------------------------------------------------------------|
F#|-------------------------------------------------------------------------|
D |-12-x-12-x-12-12-x-12-x-12-x-12-12-x-16-x-16-x-16-16-x-16-x-16-x-16-16-x-|
A |-9--x-9--x-9--9--x-9--x-9--x-9--9--x-12-x-12-x-12-12-x-12-x-12-x-12-12-x-|
D |-9--x-9--x-9--9--x-9--x-9--x-9--9--x-12-x-12-x-12-12-x-12-x-12-x-12-12-x-|

[Part 13]
(Guitar 1)
(4:16)
E |--------10------------10------------10------------10-----|
A |----10------10----10------10----10------10----10------10-|
F#|--12--12--12----12--12--12----12--12--12----12--12--12---|
D |-0-------------0-------------0-------------0-------------|
A |---------------------------------------------------------|
D |---------------------------------------------------------|

E |--------10------------10------------10------------10-----|
A |----10------10----10------10----10------10----10------10-|
F#|--12--12--12----12--12--12----12--12--12----12--12--12---|
D |-0-------------0-------------0-------------0-------------|
A |---------------------------------------------------------|
D |---------------------------------------------------------|

E |--------14------------14------------14------------14-----|
A |----14------14----14------14----14------14----14------14-|
F#|--15--15--15----15--15--15----15--15--15----15--15--15---|
D |-0-------------0-------------0-------------0-------------|
A |---------------------------------------------------------|
D |---------------------------------------------------------|

E |--------14------------14------------14------------14-----|
A |----14------14----14------14----14------14----14------14-|
F#|--15--15--15----15--15--15----15--15--15----15--15--15---|
D |-0-------------0-------------0-------------0-------------|
A |---------------------------------------------------------|
D |---------------------------------------------------------|

E |---------------------------------------------------------|
A |-14------------------------------------------------------|
F#|-15------------------------------------------------------|
D |-12------------------------------------------------------|
A |-12------------------------------------------------------|
D |-12------------------------------------------------------|

[Guitar 2]
(4:16)
E |-----0-------------------0--------------0--------------7------|
A |---------0-----------9-----9----------------------------------|
F#|-----------13------8---8-----8------8-------8------10------10-|
D |---12--12----12-------------------7---7---7------7---7---7----|
A |-10--------------------------------------------7--------------|
D |-----------------9--------------7-----------------------------|

E |---------10--------------10-------------10-------------10----|
A |---------------------10------10-----10------10-----10------8-|
F#|-----13------13----8---8---8------8---8---8------8---8---8---|
D |---12--12--12------------------------------------------------|
A |-10--------------------------------------------7-------------|
D |-----------------9--------------7----------------------------|

E |---------10--------------10-------------10-------------10----|
A |---------------------10------10-----10------10-----10------8-|
F#|-----13------13----8---8---8------8---8---8------8---8---8---|
D |---12--12--12------------------------------------------------|
A |-10--------------------------------------------7-------------|
D |-----------------9--------------7----------------------------|

E |---------10--------------10-------------10-------------10----|
A |---------------------10------10-----10------10-----10------8-|
F#|-----13------13----8---8---8------8---8---8------8---8---8---|
D |---12--12--12------------------------------------------------|
A |-10--------------------------------------------7-------------|
D |-----------------9--------------7----------------------------|

E |-5---------------------------5-----5-----5-----5-----5-----5-|
A |-5---------------------------5-----5-----5-----5-----5-----5-|
F#|-8---------------------------8-----8-----8-----8-----8-----8-|
D |-7---------------------------7-----7-----7-----7-----7-----7-|
A |-5---------------------------5-----5-----5-----5-----5-----5-|
D |-5---------------------------5-----5-----5-----5-----5-----5-|

************************************

| h        hammer-on
| p        pull-off
| /        slide up
| \        slide down
| x        dead note
| T        right hand tap
| N.H.     natural harmonic
| .        palm mute

************************************

            
            
Suggest correction
Creating personal tab
Creating personal tab
You can edit any tab online and save it as your Personal.

You can edit, replace or remove any tab part or add personal notes – all changes will be seen only by you.

Personal tabs can be accessed anytime from any device, even offline.
Learn more »
Give kudos to tab author, rate the tab!
1 2 3 4 5
comments
print report bad tab
guest
You may want to rate the tab now too:
select rating
Wanna post a correction for this tab? Suggest correction