Oops, an error
Loading. Please wait.

A Wonderful World bass

220 views 6 this week
1 commentread comment
1 2 3 4 5
2 more votes to show rating
add to favorites
×
Save as Personal and add changes to this tab that will be seen only by you. Learn more ›
×
You can save this tab as Personal to edit and correct it or add notes. All changes will be seen only by you. Learn more »
launch autoscroll
font size
0
reset
guitar tuner
edit
Autoscroll
slow
fast
+/-
esc
set tempo
stop
Author
Difficulty
About this tab version
To my knowledge this is the first ever bass tab for this song. My referenced version is the one featured on the 1996 compilation album "The Best of Zucchero Sugar Fornaciari's Greatest Hits". Was this info helpful? Yes No
[Intro]
G|----------------|----------------|----------------|----------------||
D|----------------|----------------|----------------|----------------||2x
A|----------------|----------------|----------------|----------------||
E|3-----3-2-----0-|(0)---0-----0-2-|3-----3-5-----1-|(1)---0-----0-2-||

[Verse 1]
G|----------------|----------------|----------------|----------------||
D|----------------|----------------|----------------|----------------||2x
A|----------------|----------------|----------------|----------------||
E|3-----3-2-----0-|(0)---0-----0-2-|3-----3-5-----1-|(1)---0-----0-2-||

[Guitar Fill]
G|----------------|----------------|----------------|----------------||
D|----------------|----------------|----------------|----------------||
A|----------------|----------------|----------------|----------------||
E|3-----3-2-----0-|(0)---0-----0-2-|3-----3-5-----1-|(1)---0-----0-2-||

 [Verse 2]
G|----------------|----------------|----------------|----------------|
D|----------------|----------------|----------------|----------------|
A|----------------|----------------|----------------|----------------|
E|3-----3-2-----0-|(0)---0-----0-2-|3-----3-5-----1-|(1)---0-----0-2-|

G|----------------|----------------|----------------|----------------||
D|----------------|----------------|----------------|----------------||
A|----------------|----------------|----------------|----------------||
E|3-----3-2-----0-|(0)---0-----0-2-|3-----3-5-----1-|(1)---0-----5-3-||

 [Bridge 1]
G|----------------|----------------|----------------|----------------|
D|----------------|----------------|----------------|----------------|
A|------------3---|------------0-2-|3-----3-2-----2-|----------------|
E|1-----1-1-------|3-----3-3-------|----------------|5-----5-5-------|

G|----------------|----------------||
D|----------------|----------------||
A|----------------|----------------||
E|4-----4-4-------|1-----1-3-------||

 [Chorus 1]
G|----------------|----------------|----------------|----------------||
D|----------------|----------------|----------------|----------------||2x
A|----------------|----------------|----------------|----------------||
E|3-----3-2-----0-|(0)---0-----0-2-|3-----3-5-----1-|(1)---0-----0-2-||

[Verse 3]
G|----------------|----------------|----------------|----------------|
D|----------------|----------------|----------------|----------------|
A|----------------|----------------|----------------|----------------|
E|3-----3-2-----0-|(0)---0-----0-2-|3-----3-5-----1-|(1)---0-----0-2-|

G|----------------|----------------|----------------|----------------||
D|----------------|----------------|----------------|----------------||
A|----------------|----------------|----------------|----------------||
E|3-----3-2-----0-|(0)---0-----0-2-|3-----3-5-----1-|(1)---0-----5-3-||

 [Bridge 2]
G|----------------|----------------|----------------|----------------|
D|----------------|----------------|----------------|----------------|
A|------------3---|------------0-2-|3-----3-2-----2-|----------------|
E|1-----1-1-------|3-----3-3-------|----------------|5-----5-5-------|

G|----------------|----------------||
D|----------------|----------------||
A|----------------|----------------||
E|4-----4-4-------|1-----1-3-------||

[Chorus 2]
G|----------------|----------------|----------------|----------------|
D|----------------|----------------|----------------|----------------|
A|----------------|----------------|----------------|----------------|
E|3-----3-2-----0-|(0)---0-----0-2-|3-----3-5-----1-|(1)---0-----0-2-|

G|----------------|----------------|----------------|----------------||
D|----------------|----------------|----------------|----------------||
A|----------------|----------------|----------------|----------------||
E|3-----3-2-----0-|(0)---0-----0-2-|3-----3-5-----1-|(1)---0-----5-3-||

[Bridge 3]
G|----------------|----------------|----------------|----------------|
D|----------------|----------------|----------------|----------------|
A|------------3---|------------0-2-|3-----3-2-----2-|----------------|
E|1-----1-1-------|3-----3-3-------|----------------|5-----5-5-------|

G|----------------|----------------||
D|----------------|----------------||
A|----------------|----------------||
E|4-----4-4-------|1-----1-3-------||

[Piano Solo]
G|----------------|----------------|----------------|----------------||
D|----------------|----------------|----------------|----------------||2x
A|----------------|----------------|----------------|----------------||
E|3-----3-2-----0-|(0)---0-----0-2-|3-----3-5-----1-|(1)---0-----0-2-||

[Guitar Solo]
G|----------------|----------------|----------------|----------------|
D|----------------|----------------|----------------|----------------|
A|----------------|----------------|----------------|----------------|
E|3-----3-2-----0-|(0)---0-----0-2-|3-----3-5-----1-|(1)---0-----0-2-|

G|----------------|----------------|----------------|----------------||
D|----------------|----------------|----------------|----------------||
A|----------------|----------------|----------------|----------------||
E|3-----3-2-----0-|(0)---0-----0-2-|3-----3-5-----1-|(1)---0-----5-3-||

[Bridge 4]
G|----------------|----------------|----------------|----------------|
D|----------------|----------------|----------------|----------------|
A|------------3---|------------0-2-|3-----3-2-----2-|----------------|
E|1-----1-1-------|3-----3-3-------|----------------|5-----5-5-------|

G|----------------|----------------||
D|----------------|----------------||
A|----------------|----------------||
E|4-----4-4-------|1-----1-3-------||

[Chorus 3]
G|----------------|----------------|----------------|----------------||
D|----------------|----------------|----------------|----------------||2x
A|----------------|----------------|----------------|----------------||
E|3-----3-2-----0-|(0)---0-----0-2-|3-----3-5-----1-|(1)---0-----0-2-||

[Chorus 4]
G|----------------|----------------|----------------|----------------||
D|----------------|----------------|----------------|----------------||2x
A|----------------|----------------|----------------|----------------||
E|3-----3-2-----0-|(0)---0-----0-2-|3-----3-5-----1-|(1)---0-----0-2-||

[Outro]
G|----------------|----------------|----------------|----------------||
D|----------------|----------------|----------------|----------------||6x
A|----------------|----------------|----------------|----------------||
E|3-----3-2-----0-|(0)---0-----0-2-|3-----3-5-----1-|(1)---0-----0-2-||

fade-out starts towards the end of the 3rd repetition


            
            
Suggest correction
Creating personal tab
Creating personal tab
You can edit any tab online and save it as your Personal.

You can edit, replace or remove any tab part or add personal notes – all changes will be seen only by you.

Personal tabs can be accessed anytime from any device, even offline.
Learn more »
Give kudos to tab author, rate the tab!
1 2 3 4 5
comments
print report bad tab
1 comment total.
0 reply
Frostmind 74 Mar 07, 2017 11:43 AM

Thanks for the effort!

guest
You may want to rate the tab now too:
select rating
Wanna post a correction for this tab? Suggest correction