Oops, an error
Loading. Please wait.

Mi Escuelita tab

13 views 1 this week
no commentswrite comment
1 2 3 4 5
3 more votes to show rating
add to favorites
×
Save as Personal and add changes to this tab that will be seen only by you. Learn more ›
×
You can save this tab as Personal to edit and correct it or add notes. All changes will be seen only by you. Learn more »
launch autoscroll
font size
0
reset
how to read this tab
guitar tuner
edit
Autoscroll
slow
fast
+/-
esc
set tempo
stop
PUNTEO:

   -------------5--|-5-5-4-3---ÁCORDE DE REM-----------
   -----------5----|-----------------------------------
   --------6-------|-----------------------------------
   ---7-7----------|-----------------------------------
   ----------------|-----------------------------------
   ----------------|-----------------------------------

   -------------5--|-4-5-4-5-7-9-5---ACORDE DE LAM-----
   -----------5----|-----------------------------------
   --------6-------|-----------------------------------
   ---7-7----------|-----------------------------------
   ----------------|-----------------------------------
   ----------------|-----------------------------------

   ----------------------------|-----------------------
   --5-5-5-5-5-5-5-3-3-3-2-3-5-|--5-5-5-5-5-5-5--------
   ----------------------------|-----------------------
   ----------------------------|-----------------------
   ----------------------------|-----------------------
   ----------------------------|-----------------------

   ---------------------------------------------------
   -3-2-3-2-0--------0---------ACORDE DE LAM------0---
   ------------2-0-2---0----------------------O-2---0-
   ---------------------------------------------------
   ---------------------------------------------------
   ---------------------------------------------------

   hay que darle ritmo despues comienza directo


   A                          D
 Cuando me voy a mi escuelita
                               A
 Lunes a viernes mandilito blanco
                       E
 Primeros años de mi vida
                       A
 Inocente blanca palomita
                       E
 Primeros años de mi vida
                       A
 Inocente blanca palomita


                        D
 De mi recreo no me olvido
                             A
 Una moneda dentro del bolsillo
                         E
 Chojlo pancito misk?i bola
                        A
 Saboreando pepa de mokola
                         E
 Chojlo pancito misk?i bola
                        A
 Saboreando pepa de mokola


               D
 Y una chachadita
                           A
 nadie se libra de la chachada
                     E
 Y recogerse pata p?ila
                            A
 sin cuaderno libro ni mochila
                     E
 Y recogerse pata p?ila
                            A
 sin cuaderno libro ni mochila


 Cómo recuerdo a mi escuelita
 Aquel cocacho cuando no aprendía
 LA salvadora campanilla
 Mi banquito t?anta cajoncito

 Adiós le digo a mi escuelita
 Tengo partido mi corazoncito
 Ella me dice ?esta conmigo
 Inolvidable sonrisa de niño?

 Y una chachadita...

            
            
Suggest correction
Creating personal tab
Creating personal tab
You can edit any tab online and save it as your Personal.

You can edit, replace or remove any tab part or add personal notes – all changes will be seen only by you.

Personal tabs can be accessed anytime from any device, even offline.
Learn more »
Give kudos to tab author, rate the tab!
1 2 3 4 5
comments
print report bad tab
guest
Wanna post a correction for this tab? Suggest correction