Oops, an error
Loading. Please wait.

Dios Practica Un Tsunami tab

22 views 1 this week
no commentswrite comment
1 2 3 4 5
3 more votes to show rating
add to favorites
×
Save as Personal and add changes to this tab that will be seen only by you. Learn more ›
×
You can save this tab as Personal to edit and correct it or add notes. All changes will be seen only by you. Learn more »
launch autoscroll
font size
0
reset
how to read this tab
guitar tuner
edit
Autoscroll
slow
fast
+/-
esc
set tempo
stop
Hola a todos... esta es mi primera transcripción
y la hice completamente de oído,
lo cual es probable que tenga errores, cualquier cosa corrijanla.

 Intro:

  e|----------------------------------------/
  B|----------------------------------------/
  G|--0--3--0----0--3--0----0--3--5--5--3---/
  D|--0--3--0----0--3--0----0--3--5--5--3---/
  A|----------------------------------------/
  E|----------------------------------------/


  e|----------------------------------------/
  B|----------------------------------------/
  G|--0--3--5----0--3--5----0--3--5--5--3---/
  D|--0--3--5----0--3--5----0--3--5--5--3---/
  A|----------------------------------------/
  E|----------------------------------------/


  e|----------------------------------------/
  B|----------------------------------------/
  G|--0--3--0----0--3--0----0--3--5--5--3---/
  D|--0--3--0----0--3--0----0--3--5--5--3---/
  A|----------------------------------------/
  E|----------------------------------------/


  e|------------------------------------------/
  B|------------------------------------------/
  G|--0--3--5----0--3--5----6--5--3--5--3--0--/
  D|--0--3--5----0--3--5----6--5--3--5--3--0--/
  A|------------------------------------------/
  E|------------------------------------------/


 (Como Intro)
   El ojo por ojo va a dejar ciegos a todos,
  la fortuna recompensará a los atrevidos.
  El estómago vacío y el corazón troto,
  un silencio que ni siquiera tiene latidos.


   F5 G5            F5    G5
   Perros de los conventos,
  F5 G5             F5   G5
  ladran sobre el vallado.
  F5  G5          F5  G5
  Nos dio todo su mundo
  F5   G5          F5   G5
  sin pedir nada a cambio?


  C5           D#5
   Con el ánimo turbado,
  A#5                F5
  Dios ensaya un milagro,
 C5          D#5
  derramando agua como
    A#5             F5
  antídoto para ahogarnos.
 C5             D#5
  Los mortales embobados
  A#5         F5
  todavía rezamos,
 C5               D#5
  atormentados en esta jungla,
  A#5       A5
  aún respiramos.


Como Intro


  (Como Intro)
   Millones de días y de noches en vigilia,
  seremos los mensajeros de la civilización.
  Ahora podemos lucir nuestra máscara de gas,
  en la cima del volcán hay fuego negro al portador.


   F5 G5      F5 G5
   Una fina tajada
  F5 G5          F5 G5
  para saciar el hambre,
  F5 G5     F5 G5
  una corazonada,
  F5 G5              F5 G5
  quien pueda que se salve.


  C5           D#5
   Con el ánimo turbado...


  G5 - F5 F#5 G5
                 Dios practica un tsunami
  G5 - F5 F#5 G5
                 con el ánimo turbado,
  G5 - F5 F#5 G5
                 como antídoto para ahogarnos.


SOLO: (Base Estribillo) (Mas adelante lo pongo)


 C5          D#5
  Con el ánimo turbado...


Final: Como Intro.

            
            
Suggest correction
Creating personal tab
Creating personal tab
You can edit any tab online and save it as your Personal.

You can edit, replace or remove any tab part or add personal notes – all changes will be seen only by you.

Personal tabs can be accessed anytime from any device, even offline.
Learn more »
Give kudos to tab author, rate the tab!
1 2 3 4 5
comments
print report bad tab
guest
Wanna post a correction for this tab? Suggest correction