Oops, an error
Loading. Please wait.

Abre Los Ojos tab

version 1
version 1

Whole song

156 views 1 this week
no commentswrite comment
1 2 3 4 5
3 more votes to show rating
add to favorites
×
Save as Personal and add changes to this tab that will be seen only by you. Learn more ›
×
You can save this tab as Personal to edit and correct it or add notes. All changes will be seen only by you. Learn more »
launch autoscroll
font size
0
reset
how to read this tab
guitar tuner
edit
Autoscroll
slow
fast
+/-
esc
set tempo
stop
INTRO

E------------0---------------0--------------0--------
B----------------------------------------------------
G-----------------------------------------------5/2--
D----------------------------------------------------
A-0--0-2-3-0------0--0-2-3-0-----0--0-2-3-0----------
E----------------------------------------------------


(Antes de tocar cada acorde en seco se hace un punteo al azar sobre el mismo)

      A            F      B    Em
Abre la ventana y ve la luz del sol
      A     F        B
Abre la ventana y mírate
  C     D        A
Abre los ojos bien
                    D   A
Abre los ojos bien.

      A            F       B    Em
Salte de la casa y mira alrededor
      A     F        B
Salte de la casa y búscame
 C     D        A
Abre los ojos bien
                    D   A  E--7--
Abre los ojos bien.


A       Em2 F2    
Esta oscuridad
D           Em2    
te quiere ahogar
D            A   Em2 D 
te quiere matar
A       Em2 F2
Esta oscuridad
D           Em2 
te quiere ahogar
D            A 
te quiere olvidar
 
Solo enmedio
E-------------------------3---5---------------------------------
B-------------------------3---5---------10--8-------------------
G--8h9-9 9h10-10p9-9p8----5---7---8h9-9-------9p8~~~~\fade------
D-------------------------5---7---------------------------------
A-------------------------3---5---------------------------------
E-------------------------3---5---------------------------------

Solo final
E-----------------------------------------------
B-----------------------------------------------
G--8/9---------------------9-7------------------
D-------9-10-9----------10------10-------------- X 2 VECES
A--------------9--10/12------------8--8-7-10----
E-----------------------------------------------


A   (577555)
F   (8-8-10-10-8-8)
f2  (133111)
B   (224422)
Em  (022000)
Em2 (779977)
C   (335533)
D   (557755)

            
            
Suggest correction
Creating personal tab
Creating personal tab
You can edit any tab online and save it as your Personal.

You can edit, replace or remove any tab part or add personal notes – all changes will be seen only by you.

Personal tabs can be accessed anytime from any device, even offline.
Learn more »
Give kudos to tab author, rate the tab!
1 2 3 4 5
comments
print report bad tab
guest
Wanna post a correction for this tab? Suggest correction