Oops, an error
Loading. Please wait.

Abre Los Ojos tab

version 2
version 2

Whole song

133 views 1 this week
no commentswrite comment
1 2 3 4 5
3 more votes to show rating
add to favorites
×
Save as Personal and add changes to this tab that will be seen only by you. Learn more ›
×
You can save this tab as Personal to edit and correct it or add notes. All changes will be seen only by you. Learn more »
launch autoscroll
font size
0
reset
how to read this tab
guitar tuner
edit
Autoscroll
slow
fast
+/-
esc
set tempo
stop
   
    SIGNOS EMPLEADOS:
  
    / SLIDER HACIA ABAJO                                        
    \ SLIDER HACIA ARRIBA
    x MUTE (OPACAR LA CUERDAS CON LA MANO)
    v VIBRATO

   
   INTRO:


   e:-----------------------:--------------------------:e
   B:-----------------------:--------------------------:B         
   G:-----5-----------------:-----5--------------------:G
   D:-----------------------:--------------------------:D
   A:--------------3--------:--------------3-----------:A
   E:--5-----0--5-----5-----:--5-----0--5-----5--------:E


   GUITARRA 1:

   e:-----------------------------------------------------:e
   B:-----------------------------------------------------:B
   G:---10\7----7/4\7-------------------------------------:G
   D:-----------------------------------------------------:D
   A:-----------------------------------------------------:A
   E:-----------------------------------------------------:E

   
   GUITARRA 2:

      Am-----------------------Dm-------------------------Am


   Am         F            Bm      Dm   Am         F          Bm
   ABRE LA VENTANA Y VE LA LUZ DEL SOL, ABRE LA VENTANA Y MIRAME...

   Cm(x)    Dm(x) F                  Dm
   ABRE LOS OJOS BIEN, ABRE LOS OJOS BIEN.

   Am          F             Bm  Dm   Am          F            Bm
   SALTE DE LA CASA Y MIRA ALREDEDOR, SALTE DE LA CASA Y BUSCA ME...

   Cm(x)    Dm(x) F                  Dm      G - G#m
   ABRE LOS OJOS BIEN, ABRE LOS OJOS FIJATE BIEN.

   -------------------------------------------------------------------
   CORO:

   Am      Em  F      Dm       Cm      G        Dm  G-G#m
   ESTA OBSCURIDAD TE PUEDE AHOGAR, TE QUIERE MATAR

   Am      Em  F      Dm       Cm       G         Em
   ESTA OBSCURIDAD TE PUEDE AHOGAR, TE QUIERE OLVIDAR

   -------------------------------------------------------------------

   
   IIIIIIIIII NNNNNNNNNNNNNNNN TTTTTTTTTTTT RRRRRRRRRRRRR OOOOOOOOOO
  

   GUITARRA 1:

   e:----------------------------------------------------------:e
   B:----3/5v---5-----5/6v----5\6v----5\4v---------------------:E
   G:----------------------------------------------------------:G
   D:----------------------------------------------------------:D
   A:----------------------------------------------------------:A
   E:----------------------------------------------------------:E


   GUITARRA 2:

           Cm--------------------------------Dm


   GUITARRA 1:


   e:--------------5---3----------------------------------------:e
   B:----3/5v--5-----------5---4v-------------------------------:B
   G:-----------------------------------------------------------:G
   D:-----------------------------------------------------------:D
   A:-----------------------------------------------------------:A
   E:-----------------------------------------------------------:E

   Cm       Dm    F                  Dm
   ABRE LOS OJOS BIEN, ABRE LOS OJOS BIEN.


   GUITARRA 1:

   e:-------------------------------------------------------------:e
   E:---3/5v---5---5/6v---6\5v---5\4v-----------------------------:E
   G:-------------------------------------------------------------:G
   D:-------------------------------------------------------------:D
   A:-------------------------------------------------------------:A
   E:-------------------------------------------------------------:E


   GUITARRA 2:

                Cm-------------------------Dm


   GUITARRA 1:


   e:--------------5---3----------------------------------------:e 
   B:---3/5v---5-----------5---4v-------------------------------:E
   G:-----------------------------------------------------------:G
   D:-----------------------------------------------------------:D
   A:-----------------------------------------------------------:A
   E:-----------------------------------------------------------:E


   Cm       Dm   F                   Dm     G -- G#m
   ABRE LOS OJOS BIEN, ABRE LOS OJOS FIJATE BIEN


   CCCCCCCCCCCCCCCCCCCC OOOOOOOOOOOOOOO RRRRRRRRRRRR OOOOOOOOOOOOOO


   SOLO:

   e:---------------------------------------------------------------:e
   B:---4/5-------------------------------5---3---3-----------------:B
   G:---------4---5---4---------------4-----------------------------:G
   D:---------------------4---5---7-------------------3---3---2---5-:D
   A:---------------------------------------------------------------:A
   E:---------------------------------------------------------------:E
 

   e:-------------------------------------------------------------:e
   B:--4/5------------------------------5---3---3-----------------:B
   G:--------4---5---4---------------4--------------3---3---2---5-:G
   D:--------------------4---5---7--------------------------------:D
   A:-------------------------------------------------------------:A
   E:-------------------------------------------------------------:E

            
            
Suggest correction
Creating personal tab
Creating personal tab
You can edit any tab online and save it as your Personal.

You can edit, replace or remove any tab part or add personal notes – all changes will be seen only by you.

Personal tabs can be accessed anytime from any device, even offline.
Learn more »
Give kudos to tab author, rate the tab!
1 2 3 4 5
comments
print report bad tab
guest
Wanna post a correction for this tab? Suggest correction