Oops, an error
Loading. Please wait.

Asi Es tab

32 views 1 this week
no commentswrite comment
1 2 3 4 5
3 more votes to show rating
add to favorites
×
Save as Personal and add changes to this tab that will be seen only by you. Learn more ›
×
You can save this tab as Personal to edit and correct it or add notes. All changes will be seen only by you. Learn more »
launch autoscroll
font size
0
reset
how to read this tab
guitar tuner
edit
Autoscroll
slow
fast
+/-
esc
set tempo
stop
 
Zurdok
Asi es 
Gerardo Garcis
Maquillaje (2001)    

Tab por: Aldher Alejandro Ruelas Ramírez

Esta es una canción muy chida, a pesa de que el piano es el principal instrumento,
se pude hacer una versión para guitarra muy buena, si se acompaña con timbales se oye muy bien. 
Si ya han escuchado la versión del Cd, podran seguir correctamente este tab...

Aldher Alejandro Ruelas Ramírez
blackblinder@ para cualquier sugerencia o corrección...
13/nov/2001

Afinacíon estándar


 ACORDES:

         E A D G B E

   C#m:  x 4 6 6 5 4

     D:  x 0 0 2 3 x

 Dmaj7:  x 0 0 2 2 2

    F5:  1 3 3 x x x

   F#m:  2 4 4 2 2 2

   F#5:  2 4 4 x x x

F#sus4:  2 4 4 4 2 2

     A:  0 0 2 2 2 0

    A7:  0 0 2 0 2 0

 Amaj7:  0 0 2 1 2 0

   A/F:  x 0 3 2 3 x

   Bm7:  x 2 4 2 3 2

  B/C5:  x 2 3 4 x x

   


  Fill 1
    
            F#m                    Dmaj7           C#m       F#sus4    A/F
e |------------------------|-------------------|----------|----------|-----|
b |--------2---------------|------2------------|--------4-|----------|-----|
g |--------2------4-2----2-|----2-----4--2---2-|-----6----|--------4-|--2--|
d |-----4--------------4---|--0-----0------0---|--4-------|--2---4---|--3--|
a |------------4-----------|-------------------|--4-------|----4-----|--0--|
E |--2---------------------|-------------------|----------|----------|-----|

VERSOS

Fill 1
Has sentido que algo falta              
has cambiado de pensar,

/*En la versión del cd, aqui se detiene la música y solo se oyen secuencias ambientales,
 pero en lo personal recomiendo, que se siga tocando el Fill 1 se oye chido...*/
                      
¿esto es algo que has buscado,            
o todo lo haces natural?

Fill 1
Cuado todo es demasiado
necesitas algo mas.

Fill 1
¿crees que todo fue planeado,
o solo fue casualidad?


PUENTE

Fill 2
      F#5          F5
e|-------------|----------|
b|-------------|----------|
g|-------------|----------|
d|--4----------|--3-------|
a|--4-----0--3-|--3--2--0-|
E|--2--4-------|--1-------|

     Así  es...    Así  es...


Fill 3
     A       A/F     D      A/F
e|--------|------|-------|------|
b|----2---|----3-|---3---|----3-|
g|----2---|----2-|---2---|----2-|
d|--2-----|--3---|-0---0-|--3---|
a|------0-|------|-------|------|
E|--------|------|-------|------|

/*En el coro si quieres que se escuche muy armonico y lleno de música, otra guitarra
 puede acompañar con los acordes marcados arriba de las notas del Fill 3, al fin y al cabo 
 esa es la posición de los dedos en las cuerdas para esos acordes*/

CORO

Fill 3
A        A/F       D       A/F
 Aunque no quieras entender, así es...
Fill 3
A        A/F      D     A/F
 Aunque puedas negarlo todo, así es...
Fill 3                               
A            A/F    D       A/F              
 Aunque creas saber porque, así es...
Fill 3
A        A/F   D     A/F   A  (Se detiene LA música y entra el Fill 5)
 Aunque sea dificil de creer...

Fill 5 
 (guitarra 1)
e|----------------------------------|
b|-2-3-2-3-2-0------2-3-2-0---------|
g|---------------2-4-----------2----|
d|----------------------------------|
a|----------------------------------|
E|----------------------------------|

 (guitarra 2)
e|----------------------------------|
b|-2-3-2-3-2-0----------------------|
g|---------------2-1-1--2-1---------|
d|--------------------------4-2-----|
a|----------------------------------|
E|----------------------------------|


VERSOS:

Fill 1
Si recuerdas tu pasado
volverias a ser igual.
Fill 1
¿Crees que todo esta olvidado,
o sigue exactamente igual?


/*En la siguiente parte se da un rasgueo por cada acorde*/

A         D        Bm7      Dmaj7
Puedo olvidar que todo es real
Amaj7    A7          Dmaj7           
y traspasar a cualquier lugar
        Bm7       
que puedo imaginar....


PUENTE

Fill 2
      F#5        F5 B/C5 A
e|-------------|-----------|
b|-------------|-----------|
g|-------------|-----4---2-|
d|--4----------|--3--3---2-|
a|--4----------|--3--2---0-|
E|--2----------|--1--------|

     Así  es...    Así  es...


Fill 3

CORO

Fill 3
A        A/F       D       A/F
 Aunque quieras entender, así es...
Fill 3
A        A/F      D     A/F
 Aunque puedas negarlo todo, así es...
Fill 3                               
A            A/F    D       A/F              
 Aunque creas saber porque, así es...
Fill 3
A        A/F   D     A/F   A  (Se detiene LA música y entra el Fill 5)
 Aunque sea dificil de creer...


/*Después del Fill 5 se detiene la musica y entran el Fill 6*/

Fill 6

e|---------------|
b|---------------|
g|-6-------------|
d|-7---5--4------|
a|-7---5--4------|
E|-5---3--2--1-0-| 


/*En esta parte son los mismos acordes del coro*/

A        A/F     D   A/F   
 Olvida todo empieza otra vez, (así es)
A        A/F           D     A/F 
 si te pierdes dentro del camino, (así es)
A        A/F          D   A/F   A
 solo olvida todo empieza otra vez...

/*Aqui viene la parte instrumental con secuencias y efectos ambintales, y después de un rato sigue...*/

Fill 1
¿Crees que todo esta planeado,                 
o solo es casualidad?


Espero que entiendan este tab, lo hice lo más explicito posible, pero mi último 
consejo es que le impriman su toque personal, si algo no queda claro o 
hay un error haganmelo saber....See later

Aldher Alejandro Ruelas Ramírez
blackblinder@

            
            
Suggest correction
Creating personal tab
Creating personal tab
You can edit any tab online and save it as your Personal.

You can edit, replace or remove any tab part or add personal notes – all changes will be seen only by you.

Personal tabs can be accessed anytime from any device, even offline.
Learn more »
Give kudos to tab author, rate the tab!
1 2 3 4 5
comments
print report bad tab
guest
Wanna post a correction for this tab? Suggest correction