Oops, an error
Loading. Please wait.

Come With Me tab

version 1
version 1

Whole song

Interactive

by Zwan
788 views 1 this week
no commentswrite comment
1 2 3 4 5
2 more votes to show rating
add to favorites
×
Save as Personal and add changes to this tab that will be seen only by you. Learn more ›
×
You can save this tab as Personal to edit and correct it or add notes. All changes will be seen only by you. Learn more »
launch autoscroll
font size
0
reset
how to read this tab
guitar tuner
edit
Autoscroll
slow
fast
+/-
esc
set tempo
stop
Chord Chart:
G D/F# Em D
E-3----3---0---2--|
B-3----3---0---3--|
G-0----2---0---2--|
D-0----0---2---0--|
A-x----0---2------|
E-3----2---0------|

Opening

Voice run through keyboard loop and voice pedal arranged for guitar.
G1 
E-------------|
B-------------|
G-7—7h9-9-----|
D--------9----|
A-------------|
E-------------|

Intro

G1-
G D/F# Em
G D/F# Em
G D/F# Em
D 

G2 (harmonica arr for guitar)
E-----------------|-------------------|------------------|-----------|
B--------5-7~~----|---------5-7-5-----|--------5-7-5-----|-----------|
G----4-7----------|----4-7--------7-4-|----4-7-------7---|---4-------|
D-----------------|-------------------|----------------7~|-5--7-5-4-5|
A-----------------|-------------------|------------------|-----------|
E-----------------|-------------------|------------------|-----------|

G3 
E-----------------|-------------------|------------------|-----------|
B-----------------|-------------------|------------------|-----------|
G-----------------|-------------------|------------------|-----------|
D--------2-4~~----|---------2-4-2-----|--------2-4-2---7~|-----------|
A----2-5----------|----2-5--------5-2-|----2-5-------5---|---2-------|
E-----------------|-------------------|----------------5~|-3--5-3-2-3|

Verse 1
(Play twice)

G1
G D/F# Em
G D/F# Em
G D/F# Em
D 

Leads
G2 (harmonica arr for guitar)

E-8-7~~---5~~-----|
B-----------------|
G-----------------|
D-----------------|
A-----------------|
E-----------------|

G3 
E-----------------|
B-----------------|
G-----------------|
D-5---4-----------|
A-----------------|
E-----------------|

Pre Chorus 1

G1
D Dsus4
D Dsus4
D Dsus4
D Dsus4

Lead

G2 (harmonica arr. for guitar)
E----7----8----10---12---15--14--19-17-15p14-------|
B---------------------------------------------15~~~|
G--------------------------------------------------|
D--------------------------------------------------|
A--------------------------------------------------|
E--------------------------------------------------|

Chorus 1

G1
G D/F# Em
G D/F# Em
G D/F# Em
D w/ lead 1

G D/F# Em w/ lead 2
G D/F# Em 
G D/F# Em
D w/ lead 1 

G D/F# Em w/ lead 3
G D/F# Em
G D/F# Em
D 

Leads for Chorus

Lead 1
G2 (harmonica arr for guitar)
E-8-7~~---5~~-----|
B-----------------|
G-----------------|
D-----------------|
A-----------------|
E-----------------|
G3 
E-----------------|
B-----------------|
G-----------------|
D-5---4-----------|
A-----------------|
E-----------------|

Lead 2
G2 (harmonica arr for guitar)
E-----------------|--------8-10-----|
B-8-----10-12-----|-12--------------|
G-----------------|-----------------|
D-----------------|-----------------|
A-----------------|-----------------|
E-----------------|-----------------|

Lead 3
G3
E-----0-----------|-----------------|4x
B---------3-------|-0---------------|
G-------------2---|-----------------|
D-----------------|-----------------|
A-----------------|-----------------|
E-----------------|-----------------|


Bridge 1

G1
G D/F# Em D
G D/F# Em D
G D/F# Em No Chord

G3
E-----------------|-----------------|x2
B-----------------|-----------------|
G-----7-------2---|-----4-----------|
D-5-------4-------|-2-------0-------|
A-----------------|-----------------|
E-----------------|-----------------|

E-----------------|--------|
B-----------------|--------|
G-----7-------2---|-----4/x|
D-5-------4-------|-2------|
A-----------------|--------|
E-----------------|--------|


Verse 2 – Same as Verse 1

Pre Chorus 2 – Same as Pre Chorus 1

Chorus 2 – Play twice

G1
G D/F# Em
G D/F# Em
G D/F# Em
D 

G3
E-----0-----------|-----------------|3x
B---------3-------|-0---------------|
G-------------2---|-----------------|
D-----------------|-----------------|
A-----------------|-----------------|
E-----------------|-----------------|

G3
E-----0-----------|-----------------|-----------------|
B---------3-------|-0-----------5-7-|-7~~~------------|
G-------------2---|---------2-4-----|-----------------|
D-----------------|-----------------|-----------------|
A-----------------|-----------------|-----------------|
E-----------------|-----------------|-----------------|



Solo

G1
G D/F# Em D
G D/F# Em D

G3 (electric)
E----------------|----------------|----------------|-----------------|x2
B----7h8p7-------|----7h8p7-------|----7h8p7-------|---------7-------|
G------------9---|------------7---|------------9---|-----7-9---9-7~~-|
D----------------|----------------|----------------|-7-9-------------|
A----------------|----------------|----------------|-----------------|
E----------------|----------------|----------------|-----------------|

Bridge 2

G1
G D/F# Em D
G D/F# Em

G3 (Electric)
E----------------|----------------|----------------|-----------------|
B----7h8p7-------|----7h8p7-------|----7h8p7-------|---------7-------|
G------------9---|------------7---|------------9---|-----7-9---9-7~~-|
D----------------|----------------|----------------|-7-9-------------|
A----------------|----------------|----------------|-----------------|
E----------------|----------------|----------------|-----------------|

E----------------|----------------|
B----7h8p7-------|----7h8p7-------|
G------------9---|------------7---|
D----------------|----------------|
A----------------|----------------|
E----------------|----------------|

Outro

Solo over Outro

E-----0-----------|-----------------|4x
B---------3-------|-0---------------|
G-------------2---|-----------------|
D-----------------|-----------------|
A-----------------|-----------------|
E-----------------|-----------------|

            
            
Suggest correction
Creating personal tab
Creating personal tab
You can edit any tab online and save it as your Personal.

You can edit, replace or remove any tab part or add personal notes – all changes will be seen only by you.

Personal tabs can be accessed anytime from any device, even offline.
Learn more »
Give kudos to tab author, rate the tab!
1 2 3 4 5
comments
print report bad tab
guest
Wanna post a correction for this tab? Suggest correction