Oops, an error
Loading. Please wait.

Core Solution tab

by Zyklon
4,164 views 1 this week
no commentswrite comment
1 2 3 4 5
2 more votes to show rating
add to favorites
×
Save as Personal and add changes to this tab that will be seen only by you. Learn more ›
×
You can save this tab as Personal to edit and correct it or add notes. All changes will be seen only by you. Learn more »
launch autoscroll
font size
0
reset
how to read this tab
guitar tuner
edit
Autoscroll
slow
fast
+/-
esc
set tempo
stop
Author
Difficulty
This song also is a very good song form Zyklon
again hope you like the solo
took me a little bit to get the solo

Tuning is DGCFAD

and yeah you already know the marks so...


Riff A1
|------------------------------------------------------|-----------------------|
|------------------------------------------------------|-----------------------|
|------------------------------------------------------|-------------------3^--|
|---------3-3-3---------6-6-6--7-7-7--6-6-6---------6--|--5------3-------------|
|--2-2-2--3-3-3--2-2-2--6-6-6--7-7-7--6-6-6--2-2-2--6--|--5------3--4-3-2------|
|--0-0-0--1-1-1--0-0-0--4-4-4--5-5-5--4-4-4--0-0-0--4--|--3-3333-1--2-2-0------|
   . . .  . . .  . . .  . . .  . . .  . . .  . . .        . .... .  . . .   pm

At first both play A1 and soon Samoth Plays

Riff A1.2
|----------------------------|
|----------------------------|
|----------------------------|
|-----------------------3^---|
|--10~---7~---2~---5~--------|
|----------------------------|


Riff A2 - {before this A1 is played without ending}
{Destructhr plays second riff 6 frets up}
|---------------------|-------------|
|---------------------|--3-3---3\4--|
|---------------------|--3-3---3\4--|
|--3\7-6--------------|--2-2---2\3--|
|--3\7-6-3-3-3-3-3-3--|--1-1---1\2--|
|--1\5-4-1-1-1-1-1-1--|-------------|
         . . . . . .


Modified A2.2
|------------------------------|-------------|
|------------------------------|--3-3---3\4--|
|------------------------------|--3-3---3\4--|
|---------3-3-3---------6-6-6--|--2-2---2\3--|
|--2-2-2--3-3-3--2-2-2--6-6-6--|--1-1---1\2--|
|--0-0-0--1-1-1--0-0-0--4-4-4--|-------------|
   . . .  . . .  . . .  . . .

Now both play A1 twice but without the seperate ending
then A1 twice
then A1 with A1.2
Followed by A2 and then A2.2

B1 *Sweep pick with side of pic{Destructhor does not slide down to three but does strike it}
|--------*5---------------------|--------*5-------------------|
|---------*5--------------------|---------*5------------------|
|----------*5-------------------|----------*5-----------------|
|-----------*5\3----------------|-----------*5\3--------------|
|--2--2------*5\3---3--2--2-----|--2--2------*5\3---3---------|
|--0--0-------*5\3-----0--0/12--|--0--0-------*5\3----10/7\12-|

Riff B2 *if you wantyou can add in another slide downwards...
         you do that on last tim before solo
|---------------------|-------------------------|
|---------------------|-------------------------|
|---------------------|-------------------------|
|----6-3----6-3---7\8-|----6-3----6-3---8---10--|
|--2-6-3--2-6-3-2-7\8-|--2-6-3--2-6-3---8---10--|
|--0-4-1--0-4-1-0-5\6-|--0-4-1--0-4-1-4\6-6\8---|

Then B1
then B2
then B1

and basically that repeats until solo
sorry no Samoth for solo

Solo - Destruthor * if you want you can just pull off the notes
--------------------------------------------------------------------------|
--------------------------------------------------------------------------|
----------------------------16-------16-------16-------16-----------------|
--0----10\12-----12^-10--12-16-14-12-16-14-12-16-14-12-16-14----14-18-16--|
-------------------------------------------------------------15-----------|
--------------------------------------------------------------------------|

--------------------------------------------------------------------------------------|
--------------------------------------------------------------------------------------|
-----------------------------16p15p14---------------------------11--------------------|
--------------------12-14-15---------------------------12-13-15-------------------11--|
-----------11-13-14------------------------------14-16----------------------13-15-----|
-11-13-14------------------------------13-15-16--------------------12-14-15-----------|

--------------------------------------------------------------------|
--------------------------------------------------------------------|
------------------------------16p15p14------------------------------|
-----------------12-------12------------------------------12\15-16--|
-----------14-16----14-16--------------14p13p12---------------------|
-13-15-16---------------------------------------12p11p10------------|

|-Sweep picked-------------------------------------|
|-19-----------------------------------------------|
|----17--------------------------------------------|
|-------18-----------16-----------16-15------------|
|-----------12-14-15------12"\15"-------14let ring-|
|--------------------------------------------------|

----------------------------------------------------------------------------|
----------------------------------------------------------------------------|
---------------------------------------------------------------12-----------|
------------------------------------------------------12-14-16-----------12-|
-----------------------------14-16-17-----------13-15--------------12-14----|
--12-14-15-12-14-15-13-15-16-----------12-14-15-----------------------------|

-----------------------------------------|
-----------------15-17-18-------------18-|
--------11-12-16----------15-------------|
--13-15----------------------17----17----|
--------------------------------18-------|
-----------------------------------------|

--Sweeped------------------------------------------------------------------------------|
-15--------------16<20>-----------16<20>---------15h19p15---------14h18p14-------------|
----16--------------------16-------------15----------------14--------------16----------|
-------14----14--------------14-------------13----------------12--------------14----14-|
----------15--------------------15-------------14----------------13--------------15----|
---------------------------------------------------------------------------------------|

---------------------------------------------------------------------|
-16<20>----------16<20>----------15h19p15----------14h18p14----------|
--------16--------------15----------------14----------------16-------|
-----------14--------------13----------------12----------------14----|
--------------15--------------14----------------13----------------15-|
---------------------------------------------------------------------|

--------------------------------------------------------------------------------------------|
--------------------------------------------------------------------------------------------|
-7-12-10-7----------7\12-10-12h16p21h16p12h16p21h16p12h16p12h15p21h16p12h16p12h16p12h16p12--|
-----------10-9-7-9-------------------------------------------------------------------------|
--------------------------------------------------------------------------------------------|
--------------------------------------------------------------------------------------------|

|-------------------------------------------------------------------------------------------|
|-------------------------------------------------------------------------------------------|
|-------------------------------------------------------------------------------------------|
|---6-3-------------------------------------------------------------------------------------|
|-2-6-3-------------------------------------------------------------------------------------|
|-0-4-1-------------------------------------------------------------------------------------|
  . . .

Riff A3
|-----------------------------|
|-----------------------------|
|-----------------------------|
|-----------------------------|
|-2-2-2--2-2-2--2-2-2--2-2-2--|
|-0-0-0--0-0-0--0-0-0--0-0-0--|
  . . .  . . .  . . .  . . .

and you cna figure out the order form here
any questions just ask

            
            
Suggest correction
Creating personal tab
Creating personal tab
You can edit any tab online and save it as your Personal.

You can edit, replace or remove any tab part or add personal notes – all changes will be seen only by you.

Personal tabs can be accessed anytime from any device, even offline.
Learn more »
Give kudos to tab author, rate the tab!
1 2 3 4 5
comments
print report bad tab
guest
You may want to rate the tab now too:
select rating
Wanna post a correction for this tab? Suggest correction