Oops, an error
Loading. Please wait.
We have an official Sharp Dressed Man tab made by UG professional guitarists. Check out the tab »
×

Sharp Dressed Man bass

version 3
version 3

Whole song

  • Variations added to the song... my own way to play it live with my band...

Interactive

by ZZ Top
178 views 3 this week
no commentswrite comment
1 2 3 4 5
3 more votes to show rating
add to favorites
×
Save as Personal and add changes to this tab that will be seen only by you. Learn more ›
×
You can save this tab as Personal to edit and correct it or add notes. All changes will be seen only by you. Learn more »
launch autoscroll
font size
0
reset
guitar tuner
backing track
0:00
0:00
edit
Autoscroll
slow
fast
+/-
esc
set tempo
stop
About this tab version
Variations added to the song... my own way to play it live with my band... Was this info helpful? Yes No
ZZ Top - "Sharp Dressed Man" - Bass Tab (variations V)
Album: ELIMINATOR

[Intro] 
   C                 C
G|------------------|------------------|
D|*-----------------|------3-1-0------*|
A|*-3-3-3--0-1-2-3r-|-3-3--------3rr--*| (x6)
E|------------------|------------------|
B|------------------|------------------|

[Verse] 00:23
   C                 C                 Bb                F
G|------------------|-----------------|-----------------|------------------|
D|*-----------------|-----------------|-----------------|-----------------*|
A|*-3-3-3--0-1-2-3r-|-3-3-3-3-3r--3-2-|-1-1-1-1-1-1-1-1-|---------------1-*| 
E|------------------|-----------------|-----------------|-1-1-1-1-1-1-1----|
B|------------------|-----------------|-----------------|------------------|  
   C                 C                 Bb                F
G|------------------|-----------------|-----------------|------------------|
D|*-----------------|-----------------|-----------------|-----------------*|
A|*-3-3-3--0-1-2-3r-|-3-3-3-3-3r--3-2-|-1-1-1-1-1-1-1-1-|-----------------*| 
E|------------------|-----------------|-----------------|-1-1-1-1-1-1-1-1--|
B|------------------|-----------------|-----------------|------------------|  

[Chorus] 00:38
  G                 G                 C         C
G|-----------------|-----------------|---------|-------------|
D|-----------------|-----------------|---------|-------------|
A|-----------------|---------------1-|-3-R-R-R-|-R-R-R-0-1-2-|
E|-3-3-3-3-3-3-3-3-|-0-1-3-3-3-3-3---|---------|-------------|
B|-----------------|-----------------|---------|-------------|

[Interlude] 00:45
   C                 C
G|------------------|------------------|
D|*-----------------|------3-1-0------*|
A|*-3-3-3--0-1-2-3r-|-3-3--------3rr--*| (x2)
E|------------------|------------------|
B|------------------|------------------|

[Verse] 00:54
   C                 C                 Bb                F
G|------------------|-----------------|-----------------|------------------|
D|*-----------------|-----------------|-----------------|-----------------*|
A|*-3-3-3--0-1-2-3r-|-3-3-3-3-3r--3-2-|-1-1-1-1-1-1-1-1-|---------------1-*| 
E|------------------|-----------------|-----------------|-1-1-1-1-1-1-1----|
B|------------------|-----------------|-----------------|------------------|  
   C                 C                 Bb                F
G|------------------|-----------------|-----------------|------------------|
D|*-----------------|-----------------|-----------------|-----------------*|
A|*-3-3-3--0-1-2-3r-|-3-3-3-3-3r--3-2-|-1-1-1-1-1-1-1-1-|-----------------*| 
E|------------------|-----------------|-----------------|-1-1-1-1-1-1-1-1--|
B|------------------|-----------------|-----------------|------------------|

 [Chorus] 01:09
  G                 G                 C         C 
|-----------------|-----------------|---------|-------------|
|-----------------|-----------------|---------|-------------|
|-----------------|---------------1-|-3-R-R-R-|-R-R-R-0-1-2-|
|-3-3-3-3-3-3-3-3-|-0-1-3-3-3-3-3---|---------|-------------|
|-----------------|-----------------|---------|-------------|

[Interlude]+[Solo] 01:16 
   C                  C
G|------------------|------------------|
D|*-----------------|------3-1-0------*|
A|*-3-3-3--0-1-2-3r-|-3-3--------3rr--*| (x9)
E|------------------|------------------|
B|------------------|------------------|
 
  Bb  G
G|---------|
D|---------|
A|--1r-----|
E|-----3r--|
B|---------|

BREAK >>>> 01:55
     F                 F                 C                     F
G|-------------------|-----------------|-----------------|---------------------
D|*--3-3-3-3-0-1-3-3-|-3-3-3-3-3-3-3-1-|-----------------|---1-3-3-3-0-1-3-3-3-
A|*------------------|-----------------|-3-3-3--0-1-2-3r-|-3------------------- 
E|-------------------|-----------------|-----------------|---------------------
B|-------------------|-----------------|-----------------|---------------------
        G 
G|----------||-7-5-3----------------|
D|-2-3-/-5r-||-------5-3------------|
A|----------||-----------6-5-0r-(3)-|
E|----------||----------------------|
B|----------||----------------------| 
   C                 C
|------------------|------------------|
|*-----------------|------3-1-0------*|
|*-3-3-3--0-1-2-3r-|-3-3--------3rr--*| (x4)
|------------------|------------------|
  
[Verse] 02:26
   C                 C                 Bb                F
G|------------------|-----------------|-----------------|------------------|
D|*-----------------|-----------------|-----------------|-----------------*|
A|*-3-3-3--0-1-2-3r-|-3-3-3-3-3r--3-2-|-1-1-1-1-1-1-1-1-|---------------1-*| 
E|------------------|-----------------|-----------------|-1-1-1-1-1-1-1----|
B|------------------|-----------------|-----------------|------------------|  
   C                 C                 Bb                F
G|------------------|-----------------|-----------------|------------------|
D|*-----------------|-----------------|-----------------|-----------------*|
A|*-3-3-3--0-1-2-3r-|-3-3-3-3-3r--3-2-|-1-1-1-1-1-1-1-1-|-----------------*| 
E|------------------|-----------------|-----------------|-1-1-1-1-1-1-1-1--|
B|------------------|-----------------|-----------------|------------------|

[Chorus] 02:41
  G                 G                 C          C
G|-----------------|-----------------|---------|-------------|
D|-----------------|-----------------|---------|-------------|
A|-----------------|---------------1-|-3-R-R-R-|-R-R-R-0-1-2-|
E|-3-3-3-3-3-3-3-3-|-0-1-3-3-3-3-3---|---------|-------------|
B|-----------------|-----------------|---------|-------------|


[Outro:] 02:49
C                  C
G|------------------|------------------|
D|*-----------------|------3-1-0------*|
A|*-3-3-3--0-1-2-3r-|-3-3--------3rr--*| (x9)
E|------------------|------------------|
B|------------------|------------------|
 
BREAK >>>> 03:27 (play alternatively between F and C… until fade out)
     F                 F                
G|-------------------|-----------------|-
D|*-1r-3-3-3-0-1-3-3-|-3-3-3-0-1-3-3-1-|-
A|*------------------|-----------------|- x4
E|-------------------|-----------------|-
B|-------------------|-----------------|-

C                  C
G|------------------|------------------||
D|*-----------------|------3-1-0------*||
A|*-3-3-3--0-1-2-3r-|-3-3--------3rr--*|| x4
E|------------------|------------------||
B|------------------|------------------||

End 04:18

            
            
Suggest correction
Creating personal tab
Creating personal tab
You can edit any tab online and save it as your Personal.

You can edit, replace or remove any tab part or add personal notes – all changes will be seen only by you.

Personal tabs can be accessed anytime from any device, even offline.
Learn more »
Give kudos to tab author, rate the tab!
1 2 3 4 5
comments
print report bad tab
guest
You may want to rate the tab now too:
select rating
Wanna post a correction for this tab? Suggest correction