Oops, an error
Loading. Please wait.

Make It Real Acoustic Tab

2,053 views 1 this week
no commentswrite comment
1 2 3 4 5
please rate
add to favorites
launch autoscroll
font size
0
reset
how to read this tab
guitar tuner
Tab Pro tools
  • play this tab
  • loop segment
  • change instrument
  • show fretboard
  • metronome
Autoscroll
slow
fast
+/-
esc
set tempo
stop
Contributor
Difficulty
intermediate
----------------------------------------------------------------------------
                   Make It Real (Acoustic Version) – U-Turn
----------------------------------------------------------------------------

Artist		:	U-Turn
Song		:	Make It Real (Acoustic Version)
Date		:	October 27, 2005 
Transcribed By	:	Christian Fel P. Custuna
Email		:	tian09270@yahoo.com, 09179290196

Note		:	This version is transcribed for a solo guitarist, 
                        no lead/adlib at all and the chorus plays differ  
                        from the version of U-Turn, but still good to play,
                        especially accompanied with the voice of your girl.
                        I’m open to hear from all your suggestions and 
                        comments about this tablature, just kindly email me 
                       at tian09270@yahoo.com  Play with all your heart 
                        and +God Bless us all.

Tuning		:	(Standard Tuning and Use Capo in the 1st Fret)
   
Capo		:	1st Fret
 
 
Intro		:
	
     A9	         AM7	           D9	        A9
e|-------0-0--|-----------0----|---------0----|------------0----|
B|-------0----|-------5-0-0-0--|-----3-3-3-3--|---2p-0h-2--0-0--|
G|-----2---0--|-----4----------|---2---2------|----------2------|
D|---2--------|---6---6-6------|--------------|-----------------|
A|-0----------|-0--------------|-5-----5------|-0---------------|
E|------------|----------------|--------------|-----------------|


Verse		:	1 & 2

     A9		AM7	           D9	        A9
e|-------0-0--|-----------0----|---------0----|---------0----|
B|-------0----|-------5-0-0-0--|-----3-3-3----|-----0---0----|
G|-----2---0--|-----4----------|---2---2---3--|---2---2---2--|
D|---2--------|---6---6-6------|--------------|--------------|
A|-0----------|-0--------------|-5-----5------|-0------------|
E|------------|----------------|--------------|--------------|

   Tonight it's been a year,	  we met each other here,
   In a dream you are here,	  you smile and hold me near,


    A9	        AM7		   D9		A9
e|-------0-0--|-----------0----|---------0----|---------0-----|
B|-------0----|-------5-0-0-0--|-----3-3-3----|-----0---0-----|
G|-----2---0--|-----4----------|---2---2---3--|---2---2---2-0-|
D|---2--------|---6---6-6------|--------------|---------------|
A|-0----------|-0--------------|-5-----5------|-0-------------|
E|------------|----------------|--------------|---------------|

   Here I am all alone,	  	   as thoughts of you go on,
   And in my heart I'll pretend, that you are hear again,


Refrain		:	

   F#m		   D9		    Bm7	     C#m       D9	  E9  
e|-------0-----t-|---------0---t-|-------t-|-------t-|---------|---------|
B|-------0-----t-|-----3-3-3---t-|-----3-t-|-----5-t-|-----3---|-----5---|
G|-----2---2-0-t-|---2---2---3-t-|-----2-t-|-----6-t-|---2---2-|---4---4-|
D|---2---------t-|-------------t-|---4---t-|---6---t-|---------|---------|
A|-------------t-|-5-----5-----t-|-2-----t-|-4-----t-|-5-------|-7-------|
E|-2-----------t-|-------------t-|-------t-|-------t-|---------|---------|

   Hear me cryin' out to you	   you said, "never, never would I leave"


   F#m		   D9		    Bm7	     C#m7	 D9	   E9 
e|-------0-----t-|---------0---t-|-------t-|--------t-|---------|---------|
B|-------0-----t-|-----3-3-3---t-|-----3-t-|-----5--t-|-----3---|-----5---|
G|-----2---2-0-t-|---2---2---3-t-|-----2-t-|-----4--t-|---2---2-|---4---4-|
D|---2---------t-|-------------t-|---4---t-|---6----t-|---------|---------|
A|-------------t-|-5-----5-----t-|-2-----t-|-4------t-|-5-------|-7-------|
E|-2-----------t-|-------------t-|-------t-|--------t-|---------|---------|

   Here's a tear from me to you   and maybe it will      make you hear me


Chorus		:

     A9	       D9	  E9	   E9
e|----------|----------|------------------|
B|-----0----|-----3----|-----5-------5----|
G|-------0--|---2---2--|---4---4---4---4--|
D|---2------|----------|------------------|
A|-0--------|-5--------|-7-------7--------|
E|----------|----------|------------------|

   I 	      loved 	  you

     A9	       D9	  E9	   E9
e|----------|----------|------------------|
B|-----0----|-----3----|-----5-------5----|
G|-------0--|---2---2--|---4---4---4---4--|
D|---2------|----------|------------------|
A|-0--------|-5--------|-7-------7--------|
E|----------|----------|------------------|

   You didn't feel the   same


     A9	      D9	E9	      F#m       F#m		 D9
e|---------|---------|---------|-------------|---------|----------------|
B|-----0---|-----3---|-----5---|---------7---|-----7---|------------3---|
G|-------0-|---2---2-|---4---4-|-------6---6-|---6---6-|----------2---2-|
D|---2-----|---------|---------|-------------|---------|----------------|
A|-0-------|-5-------|-7-------|-----9-------|-9-------|--------5-------|
E|---------|---------|---------|-------------|---------|----------------|

   Though we're apart  you're in my heart      give me one more chance 


    E9	       E9
e|----------|----------|
B|-----5----|-----5----|
G|---4---4--|---4------|
D|----------|----------|
A|-7--------|-7--------|
E|----------|----------|

   To make    it real.


Bridge 		:	Chords Before Final Chorus

     A9		AM7		    D9		 A9
e|-------0-0--|-----------0----|---------0----|---------0------|
B|-------0----|-------5-0-0-0--|-----3-3-3-3--|-----0---0------|
G|-----2---0--|-----4----------|---2---2------|---2---2---2-0--|
D|---2--------|---6---6-6------|--------------|----------------|
A|-0----------|-0--------------|-5-----5------|-0--------------|
E|------------|----------------|--------------|----------------|


Chorus		:

     A9	       D9	  E9	   E9
e|----------|----------|------------------|
B|-----0----|-----3----|-----5-------5----|
G|-------0--|---2---2--|---4---4---4---4--|
D|---2------|----------|------------------|
A|-0--------|-5--------|-7-------7--------|
E|----------|----------|------------------|

   I 	      loved 	  you

     A9	       D9	  E9	   E9
e|----------|----------|------------------|
B|-----0----|-----3----|-----5-------5----|
G|-------0--|---2---2--|---4---4---4---4--|
D|---2------|----------|------------------|
A|-0--------|-5--------|-7-------7--------|
E|----------|----------|------------------|

   You didn't feel the   same


    A9	      D9        E9	     F#m        F#m		 D9
e|---------|---------|---------|-------------|---------|-----------------|
B|-----0---|-----3---|-----5---|---------7---|-----7---|------------3----|
G|-------0-|---2---2-|---4---4-|-------6---6-|---6---6-|----------2---2--|
D|---2-----|---------|---------|-------------|---------|-----------------|
A|-0-------|-5-------|-7-------|-----9-------|-9-------|--------5--------|
E|---------|---------|---------|-------------|---------|-----------------|

   Though we're apart	you're in my heart     give me one more chance 


    E9	       E9
e|----------|----------|
B|-----5----|-----5----|
G|---4---4--|---4------|
D|----------|----------|
A|-7--------|-7--------|
E|----------|----------|

   To make    it real.


Ending		:

     A9	         D9		A9	      A9
e|-------0-0--|---------0----|---------0----|-0--|
B|-------0----|-----3-3-3-3--|-----0---0----|-0--|
G|-----2---0--|---2---2------|---2---2---2--|-2--|
D|---2--------|--------------|--------------|-2--|
A|-0----------|-5-----5------|-0------------|-0--|
E|------------|--------------|--------------|----|



Intro
Verse 1
Refrain
Chorus
Intro
Verse 2
Refrain
Chorus
Bridge Chords
Chorus
Ending


| h  Hammer-on
| p  Pull-off
| t  Tap Strings
============================================================================

comments
We did not receive enough feedback on this tab! Please rate:
print report bad tab
1 2 3 4 5
I want to post or [tab]
guest
You may want to rate the tab now too:
select rating
Please do not post tabs as comments. Select "correction" instead!